  0
SECTION
  2
HEADER
  9
$ACADVER
  1
AC1014
  9
$ACADMAINTVER
 70
     0
  9
$DWGCODEPAGE
  3
ANSI_1252
  9
$INSBASE
 10
0.0
 20
0.0
 30
0.0
  9
$EXTMIN
 10
6.09342
 20
5.320216
 30
0.0
  9
$EXTMAX
 10
16.99379
 20
13.520875
 30
0.0
  9
$LIMMIN
 10
0.0
 20
0.0
  9
$LIMMAX
 10
12.0
 20
9.0
  9
$ORTHOMODE
 70
     0
  9
$REGENMODE
 70
     1
  9
$FILLMODE
 70
     1
  9
$QTEXTMODE
 70
     0
  9
$MIRRTEXT
 70
     1
  9
$DRAGMODE
 70
     2
  9
$LTSCALE
 40
1.0
  9
$OSMODE
 70
   133
  9
$ATTMODE
 70
     1
  9
$TEXTSIZE
 40
0.04
  9
$TRACEWID
 40
0.05
  9
$TEXTSTYLE
  7
STYLE1
  9
$CLAYER
  8
0
  9
$CELTYPE
  6
BYLAYER
  9
$CECOLOR
 62
   256
  9
$CELTSCALE
 40
1.0
  9
$DELOBJ
 70
     1
  9
$DISPSILH
 70
     0
  9
$DIMSCALE
 40
1.0
  9
$DIMASZ
 40
0.18
  9
$DIMEXO
 40
0.0625
  9
$DIMDLI
 40
0.38
  9
$DIMRND
 40
0.0
  9
$DIMDLE
 40
0.0
  9
$DIMEXE
 40
0.18
  9
$DIMTP
 40
0.0
  9
$DIMTM
 40
0.0
  9
$DIMTXT
 40
0.18
  9
$DIMCEN
 40
0.09
  9
$DIMTSZ
 40
0.0
  9
$DIMTOL
 70
     0
  9
$DIMLIM
 70
     0
  9
$DIMTIH
 70
     1
  9
$DIMTOH
 70
     1
  9
$DIMSE1
 70
     0
  9
$DIMSE2
 70
     0
  9
$DIMTAD
 70
     0
  9
$DIMZIN
 70
     0
  9
$DIMBLK
  1

  9
$DIMASO
 70
     1
  9
$DIMSHO
 70
     1
  9
$DIMPOST
  1

  9
$DIMAPOST
  1

  9
$DIMALT
 70
     0
  9
$DIMALTD
 70
     2
  9
$DIMALTF
 40
25.4
  9
$DIMLFAC
 40
1.0
  9
$DIMTOFL
 70
     0
  9
$DIMTVP
 40
0.0
  9
$DIMTIX
 70
     0
  9
$DIMSOXD
 70
     0
  9
$DIMSAH
 70
     0
  9
$DIMBLK1
  1

  9
$DIMBLK2
  1

  9
$DIMSTYLE
  2
STANDARD
  9
$DIMCLRD
 70
     0
  9
$DIMCLRE
 70
     0
  9
$DIMCLRT
 70
     0
  9
$DIMTFAC
 40
1.0
  9
$DIMGAP
 40
0.09
  9
$DIMJUST
 70
     0
  9
$DIMSD1
 70
     0
  9
$DIMSD2
 70
     0
  9
$DIMTOLJ
 70
     1
  9
$DIMTZIN
 70
     0
  9
$DIMALTZ
 70
     0
  9
$DIMALTTZ
 70
     0
  9
$DIMFIT
 70
     3
  9
$DIMUPT
 70
     0
  9
$DIMUNIT
 70
     2
  9
$DIMDEC
 70
     4
  9
$DIMTDEC
 70
     4
  9
$DIMALTU
 70
     2
  9
$DIMALTTD
 70
     2
  9
$DIMTXSTY
  7
STANDARD
  9
$DIMAUNIT
 70
     0
  9
$LUNITS
 70
     2
  9
$LUPREC
 70
     4
  9
$SKETCHINC
 40
0.1
  9
$FILLETRAD
 40
0.5
  9
$AUNITS
 70
     0
  9
$AUPREC
 70
     0
  9
$MENU
  1
.
  9
$ELEVATION
 40
0.0
  9
$PELEVATION
 40
0.0
  9
$THICKNESS
 40
0.0
  9
$LIMCHECK
 70
     0
  9
$BLIPMODE
 70
     0
  9
$CHAMFERA
 40
0.5
  9
$CHAMFERB
 40
0.5
  9
$CHAMFERC
 40
1.0
  9
$CHAMFERD
 40
0.0
  9
$SKPOLY
 70
     0
  9
$TDCREATE
 40
2456720.492387939
  9
$TDUPDATE
 40
2456720.604390844
  9
$TDINDWG
 40
0.1120029051
  9
$TDUSRTIMER
 40
0.1120029051
  9
$USRTIMER
 70
     1
  9
$ANGBASE
 50
0.0
  9
$ANGDIR
 70
     0
  9
$PDMODE
 70
     0
  9
$PDSIZE
 40
0.0
  9
$PLINEWID
 40
0.0
  9
$COORDS
 70
     2
  9
$SPLFRAME
 70
     0
  9
$SPLINETYPE
 70
     6
  9
$SPLINESEGS
 70
     8
  9
$ATTDIA
 70
     0
  9
$ATTREQ
 70
     1
  9
$HANDLING
 70
     1
  9
$HANDSEED
  5
DBF
  9
$SURFTAB1
 70
     6
  9
$SURFTAB2
 70
     6
  9
$SURFTYPE
 70
     6
  9
$SURFU
 70
     6
  9
$SURFV
 70
     6
  9
$UCSNAME
  2

  9
$UCSORG
 10
0.0
 20
0.0
 30
0.0
  9
$UCSXDIR
 10
1.0
 20
0.0
 30
0.0
  9
$UCSYDIR
 10
0.0
 20
1.0
 30
0.0
  9
$PUCSNAME
  2

  9
$PUCSORG
 10
0.0
 20
0.0
 30
0.0
  9
$PUCSXDIR
 10
1.0
 20
0.0
 30
0.0
  9
$PUCSYDIR
 10
0.0
 20
1.0
 30
0.0
  9
$USERI1
 70
     0
  9
$USERI2
 70
     0
  9
$USERI3
 70
     0
  9
$USERI4
 70
     0
  9
$USERI5
 70
     0
  9
$USERR1
 40
0.0
  9
$USERR2
 40
0.0
  9
$USERR3
 40
0.0
  9
$USERR4
 40
0.0
  9
$USERR5
 40
0.0
  9
$WORLDVIEW
 70
     1
  9
$SHADEDGE
 70
     3
  9
$SHADEDIF
 70
    70
  9
$TILEMODE
 70
     1
  9
$MAXACTVP
 70
    48
  9
$PINSBASE
 10
0.0
 20
0.0
 30
0.0
  9
$PLIMCHECK
 70
     0
  9
$PEXTMIN
 10
1.000000E+20
 20
1.000000E+20
 30
1.000000E+20
  9
$PEXTMAX
 10
-1.000000E+20
 20
-1.000000E+20
 30
-1.000000E+20
  9
$PLIMMIN
 10
0.0
 20
0.0
  9
$PLIMMAX
 10
12.0
 20
9.0
  9
$UNITMODE
 70
     0
  9
$VISRETAIN
 70
     1
  9
$PLINEGEN
 70
     0
  9
$PSLTSCALE
 70
     1
  9
$TREEDEPTH
 70
  3020
  9
$PICKSTYLE
 70
     1
  9
$CMLSTYLE
  2
STANDARD
  9
$CMLJUST
 70
     0
  9
$CMLSCALE
 40
1.0
  9
$PROXYGRAPHICS
 70
     1
  9
$MEASUREMENT
 70
     0
  0
ENDSEC
  0
SECTION
  2
CLASSES
  0
CLASS
  1
LWPOLYLINE
  2
AcDbPolyline
  3
"AutoCAD"
 90
        0
280
     0
281
     1
  0
ENDSEC
  0
SECTION
  2
TABLES
  0
TABLE
  2
VPORT
  5
8
100
AcDbSymbolTable
 70
    10
  0
VPORT
  5
DBE
100
AcDbSymbolTableRecord
100
AcDbViewportTableRecord
  2
*ACTIVE
 70
     0
 10
0.0
 20
0.0
 11
1.0
 21
1.0
 12
11.543605
 22
9.420545
 13
0.0
 23
0.0
 14
0.5
 24
0.5
 15
0.5
 25
0.5
 16
0.0
 26
0.0
 36
1.0
 17
0.0
 27
0.0
 37
0.0
 40
8.258819
 41
2.107692
 42
50.0
 43
0.0
 44
0.0
 50
0.0
 51
0.0
 71
     0
 72
   100
 73
     1
 74
     0
 75
     0
 76
     0
 77
     0
 78
     0
  0
ENDTAB
  0
TABLE
  2
LTYPE
  5
5
100
AcDbSymbolTable
 70
     1
  0
LTYPE
  5
12
100
AcDbSymbolTableRecord
100
AcDbLinetypeTableRecord
  2
BYBLOCK
 70
     0
  3

 72
    65
 73
     0
 40
0.0
  0
LTYPE
  5
13
100
AcDbSymbolTableRecord
100
AcDbLinetypeTableRecord
  2
BYLAYER
 70
     0
  3

 72
    65
 73
     0
 40
0.0
  0
LTYPE
  5
14
100
AcDbSymbolTableRecord
100
AcDbLinetypeTableRecord
  2
CONTINUOUS
 70
     0
  3
Solid line
 72
    65
 73
     0
 40
0.0
  0
ENDTAB
  0
TABLE
  2
LAYER
  5
2
100
AcDbSymbolTable
 70
     5
  0
LAYER
  5
E
100
AcDbSymbolTableRecord
100
AcDbLayerTableRecord
  2
0
 70
     0
 62
     7
  6
CONTINUOUS
  0
LAYER
  5
A4
100
AcDbSymbolTableRecord
100
AcDbLayerTableRecord
  2
BORDER
 70
     0
 62
     4
  6
CONTINUOUS
  0
LAYER
  5
A5
100
AcDbSymbolTableRecord
100
AcDbLayerTableRecord
  2
TEXT
 70
     0
 62
     7
  6
CONTINUOUS
  0
ENDTAB
  0
TABLE
  2
STYLE
  5
3
100
AcDbSymbolTable
 70
     5
  0
STYLE
  5
F
100
AcDbSymbolTableRecord
100
AcDbTextStyleTableRecord
  2
STANDARD
 70
     0
 40
0.0
 41
1.0
 50
0.0
 71
     0
 42
0.2
  3
romans.shx
  4

  0
STYLE
  5
A6
100
AcDbSymbolTableRecord
100
AcDbTextStyleTableRecord
  2
SIM1
 70
     0
 40
0.0
 41
0.8
 50
0.0
 71
     0
 42
0.1
  3
SIMPLEX
  4

  0
STYLE
  5
A7
100
AcDbSymbolTableRecord
100
AcDbTextStyleTableRecord
  2
COM2
 70
     0
 40
0.18
 41
0.6
 50
0.0
 71
     0
 42
0.18
  3
COMPLEX
  4

  0
STYLE
  5
D46
100
AcDbSymbolTableRecord
100
AcDbTextStyleTableRecord
  2
STYLE1
 70
     0
 40
0.04
 41
1.0
 50
0.0
 71
     0
 42
0.04
  3
ARIAL.TTF
  4

1001
ACAD
1000
Arial
1071
       34
  0
ENDTAB
  0
TABLE
  2
VIEW
  5
6
100
AcDbSymbolTable
 70
     0
  0
ENDTAB
  0
TABLE
  2
UCS
  5
7
100
AcDbSymbolTable
 70
     0
  0
ENDTAB
  0
TABLE
  2
APPID
  5
9
100
AcDbSymbolTable
 70
     1
  0
APPID
  5
10
100
AcDbSymbolTableRecord
100
AcDbRegAppTableRecord
  2
ACAD
 70
     0
  0
ENDTAB
  0
TABLE
  2
DIMSTYLE
  5
A
100
AcDbSymbolTable
 70
     1
  0
DIMSTYLE
105
1D
100
AcDbSymbolTableRecord
100
AcDbDimStyleTableRecord
  2
STANDARD
 70
     0
  3

  4

  5

  6

  7

 40
1.0
 41
0.18
 42
0.0625
 43
0.38
 44
0.18
 45
0.0
 46
0.0
 47
0.0
 48
0.0
140
0.18
141
0.09
142
0.0
143
25.4
144
1.0
145
0.0
146
1.0
147
0.09
 71
     0
 72
     0
 73
     1
 74
     1
 75
     0
 76
     0
 77
     0
 78
     0
170
     0
171
     2
172
     0
173
     0
174
     0
175
     0
176
     0
177
     0
178
     0
270
     2
271
     4
272
     4
273
     2
274
     2
340
F
275
     0
280
     0
281
     0
282
     0
283
     1
284
     0
285
     0
286
     0
287
     3
288
     0
  0
ENDTAB
  0
TABLE
  2
BLOCK_RECORD
  5
1
100
AcDbSymbolTable
 70
     2
  0
BLOCK_RECORD
  5
18
100
AcDbSymbolTableRecord
100
AcDbBlockTableRecord
  2
*MODEL_SPACE
  0
BLOCK_RECORD
  5
15
100
AcDbSymbolTableRecord
100
AcDbBlockTableRecord
  2
*PAPER_SPACE
  0
BLOCK_RECORD
  5
20
100
AcDbSymbolTableRecord
100
AcDbBlockTableRecord
  2
CSHEET
  0
ENDTAB
  0
ENDSEC
  0
SECTION
  2
BLOCKS
  0
BLOCK
  5
19
100
AcDbEntity
  8
0
100
AcDbBlockBegin
  2
*MODEL_SPACE
 70
     0
 10
0.0
 20
0.0
 30
0.0
  3
*MODEL_SPACE
  1

  0
ENDBLK
  5
1A
100
AcDbEntity
  8
0
100
AcDbBlockEnd
  0
BLOCK
  5
16
100
AcDbEntity
 67
     1
  8
0
100
AcDbBlockBegin
  2
*PAPER_SPACE
 70
     0
 10
0.0
 20
0.0
 30
0.0
  3
*PAPER_SPACE
  1

  0
ENDBLK
  5
17
100
AcDbEntity
 67
     1
  8
0
100
AcDbBlockEnd
  0
BLOCK
  5
A0
100
AcDbEntity
  8
0
100
AcDbBlockBegin
  2
CSHEET
 70
     0
 10
0.0
 20
0.0
 30
0.0
  3
CSHEET
  1

  0
LWPOLYLINE
  5
21
100
AcDbEntity
  8
BORDER
100
AcDbPolyline
 90
        4
 70
     1
 43
0.03
 10
0.5
 20
0.75
 10
21.5
 20
0.75
 10
21.5
 20
16.25
 10
0.5
 20
16.25
  0
LWPOLYLINE
  5
22
100
AcDbEntity
  8
BORDER
100
AcDbPolyline
 90
        2
 70
     0
 10
11.0
 20
0.736398
 40
0.0
 41
0.2
 10
11.0
 20
0.536398
 40
0.2
 41
0.2
  0
LWPOLYLINE
  5
23
100
AcDbEntity
  8
BORDER
100
AcDbPolyline
 90
        2
 70
     0
 43
0.015
 10
5.5
 20
0.75
 10
5.5
 20
0.35
  0
TEXT
  5
24
100
AcDbEntity
  8
BORDER
100
AcDbText
 10
2.671429
 20
0.3
 30
0.0
 40
0.2
  1
4
 41
1.1
  7
SIM1
 72
     4
 11
2.75
 21
0.4
 31
0.0
100
AcDbText
  0
TEXT
  5
25
100
AcDbEntity
  8
BORDER
100
AcDbText
 10
8.176667
 20
0.3
 30
0.0
 40
0.2
  1
3
 41
1.1
  7
SIM1
 72
     4
 11
8.25
 21
0.4
 31
0.0
100
AcDbText
  0
TEXT
  5
26
100
AcDbEntity
  8
BORDER
100
AcDbText
 10
13.676667
 20
0.3
 30
0.0
 40
0.2
  1
2
 41
1.1
  7
SIM1
 72
     4
 11
13.75
 21
0.4
 31
0.0
100
AcDbText
  0
TEXT
  5
27
100
AcDbEntity
  8
BORDER
100
AcDbText
 10
19.22381
 20
0.3
 30
0.0
 40
0.2
  1
1
 41
1.1
  7
SIM1
 72
     4
 11
19.25
 21
0.4
 31
0.0
100
AcDbText
  0
TEXT
  5
28
100
AcDbEntity
  8
BORDER
100
AcDbText
 10
2.671429
 20
16.5
 30
0.0
 40
0.2
  1
4
 41
1.1
  7
SIM1
 72
     4
 11
2.75
 21
16.6
 31
0.0
100
AcDbText
  0
LWPOLYLINE
  5
29
100
AcDbEntity
  8
BORDER
100
AcDbPolyline
 90
        2
 70
     0
 43
0.015
 10
5.5
 20
16.65
 10
5.5
 20
16.25
  0
TEXT
  5
2A
100
AcDbEntity
  8
BORDER
100
AcDbText
 10
8.176667
 20
16.5
 30
0.0
 40
0.2
  1
3
 41
1.1
  7
SIM1
 72
     4
 11
8.25
 21
16.6
 31
0.0
100
AcDbText
  0
TEXT
  5
2B
100
AcDbEntity
  8
BORDER
100
AcDbText
 10
13.676667
 20
16.5
 30
0.0
 40
0.2
  1
2
 41
1.1
  7
SIM1
 72
     4
 11
13.75
 21
16.6
 31
0.0
100
AcDbText
  0
TEXT
  5
2C
100
AcDbEntity
  8
BORDER
100
AcDbText
 10
19.22381
 20
16.5
 30
0.0
 40
0.2
  1
1
 41
1.1
  7
SIM1
 72
     4
 11
19.25
 21
16.6
 31
0.0
100
AcDbText
  0
LWPOLYLINE
  5
2D
100
AcDbEntity
  8
BORDER
100
AcDbPolyline
 90
        2
 70
     0
 43
0.015
 10
21.5
 20
12.75
 10
21.9
 20
12.75
  0
LWPOLYLINE
  5
2E
100
AcDbEntity
  8
BORDER
100
AcDbPolyline
 90
        2
 70
     0
 10
11.0
 20
16.264318
 40
0.0
 41
0.2
 10
11.0
 20
16.464318
 40
0.2
 41
0.2
  0
TEXT
  5
2F
100
AcDbEntity
  8
BORDER
100
AcDbText
 10
21.676667
 20
14.75
 30
0.0
 40
0.2
  1
D
 41
1.1
  7
SIM1
 72
     4
 11
21.75
 21
14.85
 31
0.0
100
AcDbText
  0
TEXT
  5
30
100
AcDbEntity
  8
BORDER
100
AcDbText
 10
21.671429
 20
10.5
 30
0.0
 40
0.2
  1
C
 41
1.1
  7
SIM1
 72
     4
 11
21.75
 21
10.6
 31
0.0
100
AcDbText
  0
LWPOLYLINE
  5
31
100
AcDbEntity
  8
BORDER
100
AcDbPolyline
 90
        2
 70
     0
 43
0.015
 10
21.5
 20
4.25
 10
21.9
 20
4.25
  0
TEXT
  5
32
100
AcDbEntity
  8
BORDER
100
AcDbText
 10
21.676667
 20
6.25
 30
0.0
 40
0.2
  1
B
 41
1.1
  7
SIM1
 72
     4
 11
21.75
 21
6.35
 31
0.0
100
AcDbText
  0
TEXT
  5
33
100
AcDbEntity
  8
BORDER
100
AcDbText
 10
21.66619
 20
2.0
 30
0.0
 40
0.2
  1
A
 41
1.1
  7
SIM1
 72
     4
 11
21.75
 21
2.1
 31
0.0
100
AcDbText
  0
TEXT
  5
34
100
AcDbEntity
  8
BORDER
100
AcDbText
 10
0.16619
 20
2.0
 30
0.0
 40
0.2
  1
A
 41
1.1
  7
SIM1
 72
     4
 11
0.25
 21
2.1
 31
0.0
100
AcDbText
  0
LWPOLYLINE
  5
35
100
AcDbEntity
  8
BORDER
100
AcDbPolyline
 90
        2
 70
     0
 43
0.015
 10
0.1
 20
4.25
 10
0.5
 20
4.25
  0
TEXT
  5
36
100
AcDbEntity
  8
BORDER
100
AcDbText
 10
0.176667
 20
6.25
 30
0.0
 40
0.2
  1
B
 41
1.1
  7
SIM1
 72
     4
 11
0.25
 21
6.35
 31
0.0
100
AcDbText
  0
TEXT
  5
37
100
AcDbEntity
  8
BORDER
100
AcDbText
 10
0.171429
 20
10.5
 30
0.0
 40
0.2
  1
C
 41
1.1
  7
SIM1
 72
     4
 11
0.25
 21
10.6
 31
0.0
100
AcDbText
  0
LWPOLYLINE
  5
38
100
AcDbEntity
  8
BORDER
100
AcDbPolyline
 90
        2
 70
     0
 43
0.015
 10
0.1
 20
12.75
 10
0.5
 20
12.75
  0
TEXT
  5
39
100
AcDbEntity
  8
BORDER
100
AcDbText
 10
0.176667
 20
14.75
 30
0.0
 40
0.2
  1
D
 41
1.1
  7
SIM1
 72
     4
 11
0.25
 21
14.85
 31
0.0
100
AcDbText
  0
LWPOLYLINE
  5
3A
100
AcDbEntity
  8
BORDER
100
AcDbPolyline
 90
        2
 70
     0
 10
0.485682
 20
8.5
 40
0.0
 41
0.2
 10
0.285682
 20
8.5
 40
0.2
 41
0.2
  0
LWPOLYLINE
  5
3B
100
AcDbEntity
  8
BORDER
100
AcDbPolyline
 90
        2
 70
     0
 43
0.015
 10
16.5
 20
0.75
 10
16.5
 20
0.35
  0
LWPOLYLINE
  5
3C
100
AcDbEntity
  8
BORDER
100
AcDbPolyline
 90
        2
 70
     0
 43
0.015
 10
16.5
 20
16.65
 10
16.5
 20
16.25
  0
TEXT
  5
3D
100
AcDbEntity
  8
BORDER
100
AcDbText
 10
15.310215
 20
1.157369
 30
0.0
 40
0.0615
  1
Control Technology Inc. ("CTI") and may not be
 41
1.4596
  7
SIM1
 72
     5
 11
18.661456
 21
1.157369
 31
0.0
100
AcDbText
  0
TEXT
  5
3E
100
AcDbEntity
  8
BORDER
100
AcDbText
 10
18.224027
 20
1.700158
 30
0.0
 40
0.055
  1
DATE
 41
1.15
  7
SIM1
100
AcDbText
  0
TEXT
  5
3F
100
AcDbEntity
  8
BORDER
100
AcDbText
 10
18.224027
 20
1.965125
 30
0.0
 40
0.055
  1
DATE
 41
1.15
  7
SIM1
100
AcDbText
  0
TEXT
  5
40
100
AcDbEntity
  8
BORDER
100
AcDbText
 10
18.220813
 20
2.226163
 30
0.0
 40
0.055
  1
DATE
 41
1.15
  7
SIM1
100
AcDbText
  0
TEXT
  5
41
100
AcDbEntity
  8
BORDER
100
AcDbText
 10
18.220813
 20
2.488273
 30
0.0
 40
0.055
  1
DATE
 41
1.15
  7
SIM1
100
AcDbText
  0
TEXT
  5
42
100
AcDbEntity
  8
BORDER
100
AcDbText
 10
18.220813
 20
2.743241
 30
0.0
 40
0.055
  1
DATE
 41
1.15
  7
SIM1
100
AcDbText
  0
TEXT
  5
43
100
AcDbEntity
  8
BORDER
100
AcDbText
 10
17.238116
 20
1.697658
 30
0.0
 40
0.055
  1
RELEASED
 41
1.15
  7
SIM1
100
AcDbText
  0
TEXT
  5
44
100
AcDbEntity
  8
BORDER
100
AcDbText
 10
17.238116
 20
1.963339
 30
0.0
 40
0.055
  1
ENG.
 41
1.15
  7
SIM1
100
AcDbText
  0
TEXT
  5
45
100
AcDbEntity
  8
BORDER
100
AcDbText
 10
17.238116
 20
2.225449
 30
0.0
 40
0.055
  1
MFG.
 41
1.15
  7
SIM1
100
AcDbText
  0
TEXT
  5
46
100
AcDbEntity
  8
BORDER
100
AcDbText
 10
17.238116
 20
2.488987
 30
0.0
 40
0.055
  1
CHECKED
 41
1.15
  7
SIM1
100
AcDbText
  0
TEXT
  5
47
100
AcDbEntity
  8
BORDER
100
AcDbText
 10
17.238116
 20
2.745383
 30
0.0
 40
0.055
  1
DRAWN
 41
1.15
  7
SIM1
100
AcDbText
  0
LINE
  5
48
100
AcDbEntity
  8
BORDER
100
AcDbLine
 10
21.502779
 20
15.084737
 30
0.0
 11
15.250582
 21
15.084737
 31
0.0
  0
LINE
  5
49
100
AcDbEntity
  8
BORDER
100
AcDbLine
 10
15.25
 20
15.333992
 30
0.0
 11
21.502779
 21
15.333992
 31
0.0
  0
TEXT
  5
4A
100
AcDbEntity
  8
BORDER
100
AcDbText
 10
15.354448
 20
0.813339
 30
0.0
 40
0.0615
  1
c
 41
1.1
  7
SIM1
 72
     4
 11
15.373776
 21
0.833839
 31
0.0
100
AcDbText
  0
CIRCLE
  5
4B
100
AcDbEntity
  8
BORDER
100
AcDbCircle
 10
15.37349
 20
0.833553
 30
0.0
 40
0.039422
  0
LWPOLYLINE
  5
4C
100
AcDbEntity
  8
BORDER
100
AcDbPolyline
 90
        2
 70
     0
 43
0.024606
 10
17.193898
 20
3.005525
 10
17.193898
 20
1.529822
  0
TEXT
  5
4D
100
AcDbEntity
  8
BORDER
100
AcDbText
 10
15.456286
 20
0.808815
 30
0.0
 40
0.0615
  1
19    CTI. All Rights Reserved. An unpublished work.
 41
1.25
  7
SIM1
100
AcDbText
  0
LINE
  5
4E
100
AcDbEntity
  8
BORDER
100
AcDbLine
 10
15.590193
 20
0.796317
 30
0.0
 11
15.8098
 21
0.796317
 31
0.0
  0
TEXT
  5
4F
100
AcDbEntity
  8
BORDER
100
AcDbText
 10
15.307025
 20
0.954511
 30
0.0
 40
0.0615
  1
without the prior written consent of CTI.
 41
1.371177
  7
SIM1
 72
     5
 11
17.973377
 21
0.954511
 31
0.0
100
AcDbText
  0
TEXT
  5
50
100
AcDbEntity
  8
BORDER
100
AcDbText
 10
15.307025
 20
1.055927
 30
0.0
 40
0.0615
  1
reproduced, copied, used, or disclosed to others
 41
1.438944
  7
SIM1
 72
     5
 11
18.657194
 21
1.055927
 31
0.0
100
AcDbText
  0
TEXT
  5
51
100
AcDbEntity
  8
BORDER
100
AcDbText
 10
15.307025
 20
1.258759
 30
0.0
 40
0.0615
  1
This drawing is the property of and proprietary to
 41
1.38494
  7
SIM1
 72
     5
 11
18.657194
 21
1.258759
 31
0.0
100
AcDbText
  0
TEXT
  5
52
100
AcDbEntity
  8
BORDER
100
AcDbText
 10
15.815512
 20
1.412668
 30
0.0
 40
0.07
  1
CONFIDENTIAL AND PROPRIETARY
 41
1.25
  7
SIM1
 72
     1
 11
16.921762
 21
1.412668
 31
0.0
100
AcDbText
  0
TEXT
  5
53
100
AcDbEntity
  8
BORDER
100
AcDbText
 10
20.704826
 20
15.670741
 30
0.0
 40
0.082
  1
DFT./DATE
 41
1.1
  7
SIM1
100
AcDbText
  0
LWPOLYLINE
  5
54
100
AcDbEntity
  8
BORDER
100
AcDbPolyline
 90
        3
 70
     0
 43
0.015
 10
15.25
 20
16.25
 10
21.5
 20
16.25
 10
21.5
 20
15.6
  0
LWPOLYLINE
  5
55
100
AcDbEntity
  8
BORDER
100
AcDbPolyline
 90
        2
 70
     0
 43
0.024606
 10
15.25
 20
15.839925
 10
15.25
 20
16.25
  0
LWPOLYLINE
  5
56
100
AcDbEntity
  8
BORDER
100
AcDbPolyline
 90
        2
 70
     0
 43
0.024606
 10
21.5
 20
15.839925
 10
15.25
 20
15.839925
  0
LWPOLYLINE
  5
57
100
AcDbEntity
  8
BORDER
100
AcDbPolyline
 90
        2
 70
     0
 43
0.024606
 10
21.5
 20
15.593832
 10
15.25
 20
15.593832
  0
TEXT
  5
58
100
AcDbEntity
  8
BORDER
100
AcDbText
 10
17.726911
 20
15.964365
 30
0.0
 40
0.164042
  1
REVISIONS
 41
1.25
  7
SIM1
 72
     4
 11
18.478771
 21
16.046386
 31
0.0
100
AcDbText
  0
TEXT
  5
59
100
AcDbEntity
  8
BORDER
100
AcDbText
 10
15.296508
 20
15.676014
 30
0.0
 40
0.082021
  1
REV.
 41
1.1
  7
SIM1
100
AcDbText
  0
TEXT
  5
5A
100
AcDbEntity
  8
BORDER
100
AcDbText
 10
15.699935
 20
15.675123
 30
0.0
 40
0.082021
  1
ECO NO.
 41
1.1
  7
SIM1
100
AcDbText
  0
TEXT
  5
5B
100
AcDbEntity
  8
BORDER
100
AcDbText
 10
17.575633
 20
15.677505
 30
0.0
 40
0.082021
  1
DESCRIPTION
 41
1.1
  7
SIM1
100
AcDbText
  0
TEXT
  5
5C
100
AcDbEntity
  8
BORDER
100
AcDbText
 10
19.767037
 20
15.669502
 30
0.0
 40
0.082021
  1
ENG./DATE
 41
1.1
  7
SIM1
100
AcDbText
  0
LWPOLYLINE
  5
5D
100
AcDbEntity
  8
BORDER
100
AcDbPolyline
 90
        2
 70
     0
 43
0.024606
 10
20.595801
 20
15.839895
 10
20.595801
 20
15.593832
  0
LWPOLYLINE
  5
5E
100
AcDbEntity
  8
BORDER
100
AcDbPolyline
 90
        2
 70
     0
 43
0.024606
 10
19.650591
 20
15.839895
 10
19.650591
 20
15.593832
  0
LWPOLYLINE
  5
5F
100
AcDbEntity
  8
BORDER
100
AcDbPolyline
 90
        2
 70
     0
 43
0.024606
 10
15.25
 20
15.839925
 10
15.25
 20
15.581572
  0
LWPOLYLINE
  5
60
100
AcDbEntity
  8
BORDER
100
AcDbPolyline
 90
        2
 70
     0
 43
0.024606
 10
15.594488
 20
15.839895
 10
15.594488
 20
15.593832
  0
LWPOLYLINE
  5
61
100
AcDbEntity
  8
BORDER
100
AcDbPolyline
 90
        2
 70
     0
 43
0.024606
 10
16.34273
 20
15.839895
 10
16.34273
 20
15.593832
  0
LWPOLYLINE
  5
62
100
AcDbEntity
  8
BORDER
100
AcDbPolyline
 90
        2
 70
     0
 43
0.012303
 10
15.25559
 20
1.734199
 10
17.193898
 20
1.734199
  0
LWPOLYLINE
  5
63
100
AcDbEntity
  8
BORDER
100
AcDbPolyline
 90
        2
 70
     0
 43
0.024606
 10
18.711286
 20
1.529147
 10
15.25559
 20
1.529147
  0
TEXT
  5
64
100
AcDbEntity
  8
BORDER
100
AcDbText
 10
15.53983
 20
1.570383
 30
0.0
 40
0.052288
  1
UNLESS OTHERWISE NOTED
 41
1.25
  7
SIM1
100
AcDbText
  0
TEXT
  5
65
100
AcDbEntity
  8
BORDER
100
AcDbText
 10
15.511802
 20
1.64916
 30
0.0
 40
0.052288
  1
DIMENSIONS ARE IN INCHES
 41
1.25
  7
SIM1
100
AcDbText
  0
TEXT
  5
66
100
AcDbEntity
  8
BORDER
100
AcDbText
 10
16.456593
 20
1.784814
 30
0.0
 40
0.061516
  1
+/-
 41
1.25
  7
SIM1
100
AcDbText
  0
TEXT
  5
67
100
AcDbEntity
  8
BORDER
100
AcDbText
 10
16.456593
 20
1.907846
 30
0.0
 40
0.061516
  1
+/-
 41
1.25
  7
SIM1
100
AcDbText
  0
TEXT
  5
68
100
AcDbEntity
  8
BORDER
100
AcDbText
 10
15.364629
 20
1.781209
 30
0.0
 40
0.061516
  1
ANGLES
 41
1.25
  7
SIM1
100
AcDbText
  0
TEXT
  5
69
100
AcDbEntity
  8
BORDER
100
AcDbText
 10
15.364629
 20
1.904241
 30
0.0
 40
0.061516
  1
FRACTIONS
 41
1.25
  7
SIM1
100
AcDbText
  0
TEXT
  5
6A
100
AcDbEntity
  8
BORDER
100
AcDbText
 10
16.061808
 20
2.027272
 30
0.0
 40
0.061516
  1
.XXX  +/-
 41
1.25
  7
SIM1
100
AcDbText
  0
TEXT
  5
6B
100
AcDbEntity
  8
BORDER
100
AcDbText
 10
16.061808
 20
2.150304
 30
0.0
 40
0.061516
  1
.XX   +/-
 41
1.25
  7
SIM1
100
AcDbText
  0
TEXT
  5
6C
100
AcDbEntity
  8
BORDER
100
AcDbText
 10
15.364629
 20
2.273335
 30
0.0
 40
0.061516
  1
DECIMALS  .X    +/-
 41
1.25
  7
SIM1
100
AcDbText
  0
LWPOLYLINE
  5
6D
100
AcDbEntity
  8
BORDER
100
AcDbPolyline
 90
        2
 70
     0
 43
0.012303
 10
17.18301
 20
2.393923
 10
15.244703
 20
2.393923
  0
TEXT
  5
6E
100
AcDbEntity
  8
BORDER
100
AcDbText
 10
15.84903
 20
2.421909
 30
0.0
 40
0.061516
  1
TOLERANCES
 41
1.25
  7
SIM1
 72
     1
 11
16.206041
 21
2.421909
 31
0.0
100
AcDbText
  0
TEXT
  5
6F
100
AcDbEntity
  8
BORDER
100
AcDbText
 10
15.304268
 20
2.660318
 30
0.0
 40
0.061516
  1
FINISH
 41
1.25
  7
SIM1
100
AcDbText
  0
TEXT
  5
70
100
AcDbEntity
  8
BORDER
100
AcDbText
 10
15.30607
 20
2.896913
 30
0.0
 40
0.061516
  1
MATERIAL
 41
1.25
  7
SIM1
100
AcDbText
  0
LWPOLYLINE
  5
71
100
AcDbEntity
  8
BORDER
100
AcDbPolyline
 90
        2
 70
     0
 43
0.024606
 10
17.193898
 20
2.513399
 10
15.25559
 20
2.513399
  0
LWPOLYLINE
  5
72
100
AcDbEntity
  8
BORDER
100
AcDbPolyline
 90
        2
 70
     0
 43
0.012303
 10
17.193898
 20
2.759462
 10
15.25559
 20
2.759462
  0
LWPOLYLINE
  5
73
100
AcDbEntity
  8
BORDER
100
AcDbPolyline
 90
        2
 70
     0
 43
0.012303
 10
17.193898
 20
1.791614
 10
18.711286
 20
1.791614
  0
LWPOLYLINE
  5
74
100
AcDbEntity
  8
BORDER
100
AcDbPolyline
 90
        2
 70
     0
 43
0.012303
 10
17.193898
 20
2.054081
 10
18.711286
 20
2.054081
  0
LWPOLYLINE
  5
75
100
AcDbEntity
  8
BORDER
100
AcDbPolyline
 90
        2
 70
     0
 43
0.012303
 10
17.193898
 20
2.316549
 10
18.711286
 20
2.316549
  0
LWPOLYLINE
  5
76
100
AcDbEntity
  8
BORDER
100
AcDbPolyline
 90
        2
 70
     0
 43
0.012303
 10
18.177684
 20
2.841483
 10
18.177684
 20
1.529147
  0
LWPOLYLINE
  5
77
100
AcDbEntity
  8
BORDER
100
AcDbPolyline
 90
        2
 70
     0
 43
0.012303
 10
17.193898
 20
2.579016
 10
18.711286
 20
2.579016
  0
LWPOLYLINE
  5
78
100
AcDbEntity
  8
BORDER
100
AcDbPolyline
 90
        2
 70
     0
 43
0.024606
 10
18.711286
 20
2.841483
 10
17.193898
 20
2.841483
  0
TEXT
  5
79
100
AcDbEntity
  8
BORDER
100
AcDbText
 10
17.602538
 20
2.89511
 30
0.0
 40
0.061516
  1
APPROVALS
 41
1.25
  7
SIM1
 72
     1
 11
17.932087
 21
2.89511
 31
0.0
100
AcDbText
  0
LWPOLYLINE
  5
7A
100
AcDbEntity
  8
BORDER
100
AcDbPolyline
 90
        2
 70
     0
 43
0.012303
 10
20.105643
 20
1.324147
 10
20.105643
 20
1.693241
  0
TEXT
  5
7B
100
AcDbEntity
  8
BORDER
100
AcDbText
 10
20.174162
 20
1.57021
 30
0.0
 40
0.061516
  1
PART NO.
 41
1.25
  7
SIM1
100
AcDbText
  0
TEXT
  5
7C
100
AcDbEntity
  8
BORDER
100
AcDbText
 10
18.793307
 20
1.57021
 30
0.0
 40
0.061516
  1
FILENAME
 41
1.25
  7
SIM1
100
AcDbText
  0
TEXT
  5
7D
100
AcDbEntity
  8
BORDER
100
AcDbText
 10
21.130906
 20
1.201115
 30
0.0
 40
0.061516
  1
REV.
 41
1.25
  7
SIM1
100
AcDbText
  0
TEXT
  5
7E
100
AcDbEntity
  8
BORDER
100
AcDbText
 10
19.03937
 20
1.201115
 30
0.0
 40
0.061516
  1
DWG. NO.
 41
1.25
  7
SIM1
100
AcDbText
  0
LWPOLYLINE
  5
7F
100
AcDbEntity
  8
BORDER
100
AcDbPolyline
 90
        2
 70
     0
 43
0.012303
 10
21.007874
 20
1.324147
 10
21.007874
 20
0.955052
  0
LWPOLYLINE
  5
80
100
AcDbEntity
  8
BORDER
100
AcDbPolyline
 90
        2
 70
     0
 43
0.012303
 10
18.99836
 20
0.955052
 10
18.99836
 20
1.324147
  0
LWPOLYLINE
  5
81
100
AcDbEntity
  8
BORDER
100
AcDbPolyline
 90
        2
 70
     0
 43
0.012303
 10
18.99836
 20
0.955052
 10
21.5
 20
0.955052
  0
TEXT
  5
82
100
AcDbEntity
  8
BORDER
100
AcDbText
 10
18.769705
 20
1.200221
 30
0.0
 40
0.061516
  1
SIZE
  7
SIM1
100
AcDbText
  0
TEXT
  5
83
100
AcDbEntity
  8
BORDER
100
AcDbText
 10
19.080381
 20
0.817434
 30
0.0
 40
0.061516
  1
SCALE
 41
1.25
  7
SIM1
100
AcDbText
  0
TEXT
  5
84
100
AcDbEntity
  8
BORDER
100
AcDbText
 10
20.925853
 20
0.817434
 30
0.0
 40
0.061516
  1
OF
 41
1.25
  7
SIM1
100
AcDbText
  0
TEXT
  5
85
100
AcDbEntity
  8
BORDER
100
AcDbText
 10
20.146654
 20
0.817434
 30
0.0
 40
0.061516
  1
SHEET
 41
1.25
  7
SIM1
100
AcDbText
  0
TEXT
  5
86
100
AcDbEntity
  8
BORDER
100
AcDbText
 10
18.793307
 20
2.185367
 30
0.0
 40
0.061516
  1
TITLE:
 41
1.25
  7
SIM1
100
AcDbText
  0
LWPOLYLINE
  5
87
100
AcDbEntity
  8
BORDER
100
AcDbPolyline
 90
        2
 70
     0
 43
0.012303
 10
18.711286
 20
1.324147
 10
21.5
 20
1.324147
  0
LWPOLYLINE
  5
88
100
AcDbEntity
  8
BORDER
100
AcDbPolyline
 90
        2
 70
     0
 43
0.012303
 10
18.99836
 20
0.75
 10
18.99836
 20
0.955052
  0
LWPOLYLINE
  5
89
100
AcDbEntity
  8
BORDER
100
AcDbPolyline
 90
        2
 70
     0
 43
0.012303
 10
20.064633
 20
0.75
 10
20.064633
 20
0.955052
  0
LWPOLYLINE
  5
8A
100
AcDbEntity
  8
BORDER
100
AcDbPolyline
 90
        2
 70
     0
 43
0.024606
 10
18.711286
 20
1.693241
 10
21.5
 20
1.693241
  0
LWPOLYLINE
  5
8B
100
AcDbEntity
  8
BORDER
100
AcDbPolyline
 90
        2
 70
     0
 43
0.024606
 10
18.711286
 20
2.308399
 10
21.5
 20
2.308399
  0
LWPOLYLINE
  5
8C
100
AcDbEntity
  8
BORDER
100
AcDbPolyline
 90
        2
 70
     0
 43
0.024606
 10
18.711286
 20
0.75
 10
18.711286
 20
3.005525
  0
TEXT
  5
8D
100
AcDbEntity
  8
BORDER
100
AcDbText
 10
19.88053
 20
2.524792
 30
0.0
 40
0.075972
  1
KNOXVILLE, TN. USA
  7
SIM1
 72
     1
 11
20.462982
 21
2.524792
 31
0.0
100
AcDbText
  0
TEXT
  5
8E
100
AcDbEntity
  8
BORDER
100
AcDbText
 10
19.569552
 20
2.652425
 30
0.0
 40
0.13675
  1
CONTROL TECHNOLOGY INC.
 41
0.6
  7
COM2
100
AcDbText
  0
LWPOLYLINE
  5
8F
100
AcDbEntity
  8
BORDER
100
AcDbPolyline
 90
        5
 70
     0
 43
0.024606
 10
21.5
 20
0.75
 10
21.5
 20
3.005555
 10
15.25
 20
3.005555
 10
15.25
 20
0.75
 10
21.5
 20
0.75
  0
TEXT
  5
90
100
AcDbEntity
  8
BORDER
100
AcDbText
 10
18.81063
 20
0.892743
 30
0.0
 40
0.1804
  1
C
 41
0.8
  7
SIM1
 72
     1
 11
18.862172
 21
0.892743
 31
0.0
100
AcDbText
  0
TEXT
  5
91
100
AcDbEntity
  8
BORDER
100
AcDbText
 10
18.81063
 20
0.894891
 30
0.0
 40
0.1804
  1
C
 41
0.8
  7
SIM1
 72
     1
 11
18.862172
 21
0.894891
 31
0.0
100
AcDbText
  0
TEXT
  5
92
100
AcDbEntity
  8
BORDER
100
AcDbText
 10
18.809198
 20
0.894891
 30
0.0
 40
0.1804
  1
C
 41
0.8
  7
SIM1
 72
     1
 11
18.860741
 21
0.894891
 31
0.0
100
AcDbText
  0
LWPOLYLINE
  5
93
100
AcDbEntity
  8
BORDER
100
AcDbPolyline
 90
        2
 70
     0
 10
21.514936
 20
8.500774
 40
0.0
 41
0.2
 10
21.714936
 20
8.500774
 40
0.2
 41
0.2
  0
LWPOLYLINE
  5
94
100
AcDbEntity
  8
BORDER
100
AcDbPolyline
 90
        2
 70
     0
 43
0.015
 10
21.561064
 20
8.5
 10
21.9
 20
8.5
  0
LWPOLYLINE
  5
95
100
AcDbEntity
  8
BORDER
100
AcDbPolyline
 90
        2
 70
     0
 43
0.015
 10
11.00177
 20
0.350797
 10
11.00177
 20
0.689733
  0
LWPOLYLINE
  5
96
100
AcDbEntity
  8
BORDER
100
AcDbPolyline
 90
        2
 70
     0
 43
0.015
 10
11.001054
 20
16.31135
 10
11.001054
 20
16.650286
  0
LWPOLYLINE
  5
97
100
AcDbEntity
  8
BORDER
100
AcDbPolyline
 90
        2
 70
     0
 43
0.015
 10
0.1
 20
8.5
 10
0.442418
 20
8.5
  0
LINE
  5
98
100
AcDbEntity
  8
BORDER
100
AcDbLine
 10
15.25
 20
15.593832
 30
0.0
 11
15.25
 21
15.085359
 31
0.0
  0
LINE
  5
99
100
AcDbEntity
  8
BORDER
100
AcDbLine
 10
15.594488
 20
15.593832
 30
0.0
 11
15.594488
 21
15.085359
 31
0.0
  0
LINE
  5
9A
100
AcDbEntity
  8
BORDER
100
AcDbLine
 10
16.343689
 20
15.593832
 30
0.0
 11
16.343689
 21
15.085359
 31
0.0
  0
LINE
  5
9B
100
AcDbEntity
  8
BORDER
100
AcDbLine
 10
19.651467
 20
15.593832
 30
0.0
 11
19.651467
 21
15.085359
 31
0.0
  0
LINE
  5
9C
100
AcDbEntity
  8
BORDER
100
AcDbLine
 10
20.59917
 20
15.593832
 30
0.0
 11
20.59917
 21
15.085359
 31
0.0
  0
LWPOLYLINE
  5
9D
100
AcDbEntity
  8
BORDER
100
AcDbPolyline
 90
       15
 70
     0
 43
0.011
 10
19.451685
 20
2.847332
 10
18.918456
 20
2.847332
 42
0.414214
 10
18.853076
 20
2.781952
 10
18.853076
 20
2.52552
 42
0.414214
 10
18.918456
 20
2.46014
 10
19.14929
 20
2.46014
 10
19.14929
 20
2.562186
 10
18.953369
 20
2.562186
 10
18.953369
 20
2.738872
 10
19.196428
 20
2.738872
 10
19.196428
 20
2.46014
 10
19.296721
 20
2.46014
 10
19.296721
 20
2.740621
 10
19.446181
 20
2.740621
 10
19.446181
 20
2.847332
  0
LWPOLYLINE
  5
9E
100
AcDbEntity
  8
BORDER
100
AcDbPolyline
 90
        5
 70
     0
 43
0.011
 10
19.343742
 20
2.454647
 10
19.343742
 20
2.696375
 10
19.445785
 20
2.696375
 10
19.445785
 20
2.46014
 10
19.343742
 20
2.46014
  0
LINE
  5
9F
100
AcDbEntity
  8
BORDER
100
AcDbLine
 10
19.451685
 20
2.841155
 30
0.0
 11
19.451685
 21
2.853018
 31
0.0
  0
ENDBLK
  5
A1
100
AcDbEntity
  8
0
100
AcDbBlockEnd
  0
ENDSEC
  0
SECTION
  2
ENTITIES
  0
INSERT
  5
6F1
100
AcDbEntity
  8
0
100
AcDbBlockReference
  2
CSHEET
 10
6.043741
 20
5.170418
 30
0.0
 41
0.5
 42
0.5
 43
0.5
  0
TEXT
  5
6F4
100
AcDbEntity
  8
TEXT
100
AcDbText
 10
15.772944
 20
6.179803
 30
0.0
 40
0.05625
  1
CTI 2500C-32F
100
AcDbText
  0
LWPOLYLINE
  5
6F5
100
AcDbEntity
  8
TEXT
100
AcDbPolyline
 90
        3
 70
     0
 43
0.035
 10
13.771892
 20
5.590778
 10
13.825651
 20
5.590778
 10
13.771892
 20
5.590778
  0
TEXT
  5
6F6
100
AcDbEntity
  8
TEXT
100
AcDbText
 10
13.83206
 20
5.579475
 30
0.0
 40
0.03
  1
2014
100
AcDbText
  0
TEXT
  5
6F7
100
AcDbEntity
  8
TEXT
100
AcDbText
 10
15.415686
 20
5.873127
 30
0.0
 40
0.032914
  1
2500C-32F_frontview.dwg
100
AcDbText
  0
TEXT
  5
6F8
100
AcDbEntity
  8
TEXT
100
AcDbText
 10
15.860401
 20
5.572217
 30
0.0
 40
0.05
  1
NTS
100
AcDbText
  0
TEXT
  5
6F9
100
AcDbEntity
  8
TEXT
100
AcDbText
 10
15.53252
 20
6.089808
 30
0.0
 40
0.05625
  1
FRONT PANEL CONNECTOR
100
AcDbText
  0
TEXT
  5
6FA
100
AcDbEntity
  8
TEXT
100
AcDbText
 10
14.66041
 20
6.484717
 30
0.0
 40
0.035
  1
R. DAVIS
100
AcDbText
  0
TEXT
  5
6FC
100
AcDbEntity
  8
TEXT
100
AcDbText
 10
15.160401
 20
6.484717
 30
0.0
 40
0.035
  1
3/14
100
AcDbText
  0
TEXT
  5
6FD
100
AcDbEntity
  8
TEXT
100
AcDbText
 10
16.385401
 20
5.572217
 30
0.0
 40
0.05
  1
1
100
AcDbText
  0
TEXT
  5
6FE
100
AcDbEntity
  8
TEXT
100
AcDbText
 10
16.660401
 20
5.572217
 30
0.0
 40
0.05
  1
1
100
AcDbText
  0
CIRCLE
  5
6FF
100
AcDbEntity
  8
0
  6
CONTINUOUS
 62
     7
100
AcDbCircle
 10
9.913651
 20
10.215264
 30
0.0
 40
0.068898
  0
LINE
  5
700
100
AcDbEntity
  8
0
  6
CONTINUOUS
 62
     7
100
AcDbLine
 10
10.019147
 20
10.274319
 30
0.0
 11
10.019147
 21
10.160146
 31
0.0
  0
CIRCLE
  5
702
100
AcDbEntity
  8
0
  6
CONTINUOUS
 62
     7
100
AcDbCircle
 10
10.307352
 20
10.215264
 30
0.0
 40
0.068898
  0
LINE
  5
703
100
AcDbEntity
  8
0
  6
CONTINUOUS
 62
     7
100
AcDbLine
 10
10.107367
 20
10.160146
 30
0.0
 11
10.107367
 21
10.274319
 31
0.0
  0
LINE
  5
704
100
AcDbEntity
  8
0
  6
CONTINUOUS
 62
     7
100
AcDbLine
 10
10.412848
 20
10.274319
 30
0.0
 11
10.412848
 21
10.160146
 31
0.0
  0
LINE
  5
705
100
AcDbEntity
  8
0
  6
CONTINUOUS
 62
     7
100
AcDbLine
 10
10.501068
 20
10.160146
 30
0.0
 11
10.501068
 21
10.274319
 31
0.0
  0
LINE
  5
707
100
AcDbEntity
  8
0
  6
CONTINUOUS
 62
     7
100
AcDbLine
 10
10.405777
 20
11.319594
 30
0.0
 11
10.405777
 21
8.110933
 31
0.0
  0
LINE
  5
708
100
AcDbEntity
  8
0
  6
CONTINUOUS
 62
     7
100
AcDbLine
 10
10.193178
 20
11.319594
 30
0.0
 11
10.193178
 21
8.110933
 31
0.0
  0
LINE
  5
709
100
AcDbEntity
  8
0
  6
CONTINUOUS
 62
     7
100
AcDbLine
 10
9.799478
 20
11.319594
 30
0.0
 11
9.799478
 21
8.110933
 31
0.0
  0
LINE
  5
70A
100
AcDbEntity
  8
0
  6
CONTINUOUS
 62
     7
100
AcDbLine
 10
10.012076
 20
8.110933
 30
0.0
 11
10.012076
 21
11.319594
 31
0.0
  0
LINE
  5
70B
100
AcDbEntity
  8
0
  6
CONTINUOUS
 62
     7
100
AcDbLine
 10
10.114438
 20
8.110933
 30
0.0
 11
10.114438
 21
11.319594
 31
0.0
  0
LINE
  5
70C
100
AcDbEntity
  8
0
  6
CONTINUOUS
 62
     7
100
AcDbLine
 10
9.720737
 20
8.110933
 30
0.0
 11
9.720737
 21
11.319594
 31
0.0
  0
LINE
  5
70D
100
AcDbEntity
  8
0
  6
CONTINUOUS
 62
     7
100
AcDbLine
 10
10.508139
 20
8.110933
 30
0.0
 11
10.508139
 21
11.319594
 31
0.0
  0
LINE
  5
71A
100
AcDbEntity
  8
0
  6
CONTINUOUS
 62
     7
100
AcDbLine
 10
10.012076
 20
11.319594
 30
0.0
 11
9.799478
 21
11.319594
 31
0.0
  0
LINE
  5
71B
100
AcDbEntity
  8
0
  6
CONTINUOUS
 62
     7
100
AcDbLine
 10
9.799478
 20
11.664083
 30
0.0
 11
9.990422
 21
11.664083
 31
0.0
  0
LINE
  5
71C
100
AcDbEntity
  8
0
  6
CONTINUOUS
 62
     7
100
AcDbLine
 10
9.720737
 20
11.341642
 30
0.0
 11
10.508139
 21
11.341642
 31
0.0
  0
CIRCLE
  5
71D
100
AcDbEntity
  8
0
  6
CONTINUOUS
 62
     7
100
AcDbCircle
 10
9.913651
 20
11.215264
 30
0.0
 40
0.068898
  0
LINE
  5
71E
100
AcDbEntity
  8
0
  6
CONTINUOUS
 62
     7
100
AcDbLine
 10
9.990422
 20
11.664083
 30
0.0
 11
9.990422
 21
11.435736
 31
0.0
  0
LINE
  5
71F
100
AcDbEntity
  8
0
  6
CONTINUOUS
 62
     7
100
AcDbLine
 10
10.11675
 20
11.524688
 30
0.0
 11
10.079192
 21
11.486737
 31
0.0
  0
LINE
  5
720
100
AcDbEntity
  8
0
  6
CONTINUOUS
 62
     7
100
AcDbLine
 10
10.047699
 20
11.517905
 30
0.0
 11
10.085257
 21
11.555855
 31
0.0
  0
LINE
  5
721
100
AcDbEntity
  8
0
  6
CONTINUOUS
 62
     7
100
AcDbLine
 10
10.508139
 20
11.341642
 30
0.0
 11
10.508139
 21
11.585342
 31
0.0
  0
ARC
  5
723
100
AcDbEntity
  8
0
  6
CONTINUOUS
 62
     7
100
AcDbCircle
 10
10.114438
 20
11.553846
 30
0.0
 40
0.113999
100
AcDbArc
 50
236.503901
 51
34.091908
  0
LINE
  5
724
100
AcDbEntity
  8
0
  6
CONTINUOUS
 62
     7
100
AcDbLine
 10
10.238454
 20
11.435736
 30
0.0
 11
10.238454
 21
11.664083
 31
0.0
  0
ARC
  5
725
100
AcDbEntity
  8
0
  6
CONTINUOUS
 62
     7
100
AcDbCircle
 10
10.114438
 20
11.553846
 30
0.0
 40
0.113999
100
AcDbArc
 50
56.503901
 51
214.091908
  0
LINE
  5
727
100
AcDbEntity
  8
0
  6
CONTINUOUS
 62
     7
100
AcDbLine
 10
10.238454
 20
11.664083
 30
0.0
 11
10.429399
 21
11.664083
 31
0.0
  0
ARC
  5
728
100
AcDbEntity
  8
0
  6
CONTINUOUS
 62
     7
100
AcDbCircle
 10
10.429399
 20
11.585342
 30
0.0
 40
0.07874
100
AcDbArc
 50
0.0
 51
90.0
  0
LINE
  5
729
100
AcDbEntity
  8
0
  6
CONTINUOUS
 62
     7
100
AcDbLine
 10
10.087148
 20
11.607724
 30
0.0
 11
10.06028
 21
11.580574
 31
0.0
  0
LINE
  5
72A
100
AcDbEntity
  8
0
  6
CONTINUOUS
 62
     7
100
AcDbLine
 10
10.085392
 20
11.664083
 30
0.0
 11
9.990422
 21
11.664083
 31
0.0
  0
LINE
  5
72B
100
AcDbEntity
  8
0
  6
CONTINUOUS
 62
     7
100
AcDbLine
 10
10.168596
 20
11.527118
 30
0.0
 11
10.143619
 21
11.551837
 31
0.0
  0
LINE
  5
72C
100
AcDbEntity
  8
0
  6
CONTINUOUS
 62
     7
100
AcDbLine
 10
10.11675
 20
11.524688
 30
0.0
 11
10.141728
 21
11.499969
 31
0.0
  0
LINE
  5
72D
100
AcDbEntity
  8
0
  6
CONTINUOUS
 62
     7
100
AcDbLine
 10
10.141728
 20
11.499969
 30
0.0
 11
10.168596
 21
11.527118
 31
0.0
  0
SPLINE
  5
72F
100
AcDbEntity
  8
0
  6
CONTINUOUS
 62
     7
100
AcDbSpline
210
-0.7107737475464681
220
0.7034206990121558
230
0.0
 70
    24
 71
     3
 72
    14
 73
    10
 74
     0
 42
0.0000001
 43
0.0000001
 40
0.0
 40
0.0
 40
0.0
 40
0.0
 40
0.25
 40
0.25
 40
0.5
 40
0.5
 40
0.75
 40
0.75
 40
1.0
 40
1.0
 40
1.0
 40
1.0
 10
10.18117725943957
 20
11.58978821969512
 30
0.0
 10
10.18473128163965
 20
11.59337939305918
 30
0.0
 10
10.18833268435804
 20
11.59701844222303
 30
0.0
 10
10.19494988914533
 20
11.60370481845783
 30
0.0
 10
10.19804822780153
 20
11.60683554489356
 30
0.0
 10
10.20318514947532
 20
11.6120261642115
 30
0.0
 10
10.20528324016947
 20
11.61414618682025
 30
0.0
 10
10.20810238167301
 20
11.61699479757929
 30
0.0
 10
10.20884500021581
 20
11.61774517891638
 30
0.0
 10
10.20884500021581
 20
11.61774517891638
 30
0.0
  0
SPLINE
  5
730
100
AcDbEntity
  8
0
  6
CONTINUOUS
 62
     7
100
AcDbSpline
210
-0.7107737475464681
220
0.7034206990121558
230
0.0
 70
    24
 71
     3
 72
    14
 73
    10
 74
     0
 42
0.0000001
 43
0.0000001
 40
0.0
 40
0.0
 40
0.0
 40
0.0
 40
0.25
 40
0.25
 40
0.5000000000000001
 40
0.5000000000000001
 40
0.75
 40
0.75
 40
1.0
 40
1.0
 40
1.0
 40
1.0
 10
10.1773517907572
 20
11.64891258695302
 30
0.0
 10
10.1773517907572
 20
11.64891258695302
 30
0.0
 10
10.17662353868815
 20
11.64817672226635
 30
0.0
 10
10.17377868949797
 20
11.64530213509122
 30
0.0
 10
10.17170220144597
 20
11.64320394094292
 30
0.0
 10
10.16654514818244
 20
11.63799297959424
 30
0.0
 10
10.16346074321072
 20
11.6348763324956
 30
0.0
 10
10.15683698616263
 20
11.62818333550742
 30
0.0
 10
10.15324089248962
 20
11.62454965088585
 30
0.0
 10
10.14968404998096
 20
11.62095562773177
 30
0.0
  0
ARC
  5
731
100
AcDbEntity
  8
0
  6
CONTINUOUS
 62
     7
100
AcDbCircle
 10
10.114438
 20
11.553846
 30
0.0
 40
0.113999
100
AcDbArc
 50
34.091908
 51
56.503901
  0
LINE
  5
732
100
AcDbEntity
  8
0
  6
CONTINUOUS
 62
     7
100
AcDbLine
 10
10.238454
 20
11.664083
 30
0.0
 11
10.143485
 21
11.664083
 31
0.0
  0
LINE
  5
733
100
AcDbEntity
  8
0
  6
CONTINUOUS
 62
     7
100
AcDbLine
 10
10.181177
 20
11.589788
 30
0.0
 11
10.143619
 21
11.551837
 31
0.0
  0
LINE
  5
734
100
AcDbEntity
  8
0
  6
CONTINUOUS
 62
     7
100
AcDbLine
 10
10.112126
 20
11.583005
 30
0.0
 11
10.149684
 21
11.620956
 31
0.0
  0
LINE
  5
735
100
AcDbEntity
  8
0
  6
CONTINUOUS
 62
     7
100
AcDbLine
 10
10.112126
 20
11.583005
 30
0.0
 11
10.087148
 21
11.607724
 31
0.0
  0
LINE
  5
736
100
AcDbEntity
  8
0
  6
CONTINUOUS
 62
     7
100
AcDbLine
 10
10.06028
 20
11.580574
 30
0.0
 11
10.085257
 21
11.555855
 31
0.0
  0
LINE
  5
73A
100
AcDbEntity
  8
0
  6
CONTINUOUS
 62
     7
100
AcDbLine
 10
10.405777
 20
11.319594
 30
0.0
 11
10.193178
 21
11.319594
 31
0.0
  0
CIRCLE
  5
73B
100
AcDbEntity
  8
0
  6
CONTINUOUS
 62
     7
100
AcDbCircle
 10
10.307352
 20
11.215264
 30
0.0
 40
0.068898
  0
LINE
  5
761
100
AcDbEntity
  8
0
  6
CONTINUOUS
 62
     7
100
AcDbLine
 10
10.412848
 20
11.160146
 30
0.0
 11
10.501068
 21
11.160146
 31
0.0
  0
LINE
  5
763
100
AcDbEntity
  8
0
  6
CONTINUOUS
 62
     7
100
AcDbLine
 10
10.508139
 20
11.319594
 30
0.0
 11
10.508139
 21
11.341642
 31
0.0
  0
LINE
  5
764
100
AcDbEntity
  8
0
  6
CONTINUOUS
 62
     7
100
AcDbLine
 10
10.501068
 20
11.274319
 30
0.0
 11
10.412848
 21
11.274319
 31
0.0
  0
LINE
  5
765
100
AcDbEntity
  8
0
  6
CONTINUOUS
 62
     7
100
AcDbLine
 10
10.405777
 20
11.319594
 30
0.0
 11
10.508139
 21
11.319594
 31
0.0
  0
LINE
  5
766
100
AcDbEntity
  8
0
  6
CONTINUOUS
 62
     7
100
AcDbLine
 10
10.412848
 20
11.274319
 30
0.0
 11
10.412848
 21
11.160146
 31
0.0
  0
LINE
  5
767
100
AcDbEntity
  8
0
  6
CONTINUOUS
 62
     7
100
AcDbLine
 10
10.501068
 20
11.160146
 30
0.0
 11
10.501068
 21
11.274319
 31
0.0
  0
LINE
  5
79E
100
AcDbEntity
  8
0
  6
CONTINUOUS
 62
     7
100
AcDbLine
 10
10.019147
 20
11.160146
 30
0.0
 11
10.107367
 21
11.160146
 31
0.0
  0
SPLINE
  5
79F
100
AcDbEntity
  8
0
  6
CONTINUOUS
 62
     7
100
AcDbSpline
210
-0.7107737475464679
220
0.703420699012156
230
0.0
 70
    24
 71
     3
 72
    14
 73
    10
 74
     0
 42
0.0000001
 43
0.0000001
 40
0.0
 40
0.0
 40
0.0
 40
0.0
 40
0.25
 40
0.25
 40
0.5
 40
0.5
 40
0.75
 40
0.75
 40
1.0
 40
1.0
 40
1.0
 40
1.0
 10
10.05152450811905
 20
11.45878017278208
 30
0.0
 10
10.05152450811905
 20
11.45878017278208
 30
0.0
 10
10.05227095315372
 20
11.45953442061041
 30
0.0
 10
10.05510622621738
 20
11.46239933155716
 30
0.0
 10
10.05719314637205
 20
11.46450806685774
 30
0.0
 10
10.06233663345569
 20
11.46970532021555
 30
0.0
 10
10.06542517259515
 20
11.47282614469752
 30
0.0
 10
10.07204242367673
 20
11.47951256771054
 30
0.0
 10
10.07563382300822
 20
11.48314150891936
 30
0.0
 10
10.07919224889529
 20
11.48673713200333
 30
0.0
  0
SPLINE
  5
7A0
100
AcDbEntity
  8
0
  6
CONTINUOUS
 62
     7
100
AcDbSpline
210
-0.7107737475464681
220
0.7034206990121558
230
0.0
 70
    24
 71
     3
 72
    14
 73
    10
 74
     0
 42
0.0000001
 43
0.0000001
 40
0.0
 40
0.0
 40
0.0
 40
0.0
 40
0.25
 40
0.25
 40
0.5
 40
0.5
 40
0.75
 40
0.75
 40
1.0
 40
1.0
 40
1.0
 40
1.0
 10
10.04769903943668
 20
11.51790454003997
 30
0.0
 10
10.04414630265195
 20
11.51431466552807
 30
0.0
 10
10.0405481669447
 20
11.51067891752632
 30
0.0
 10
10.03393330964683
 20
11.50399491331989
 30
0.0
 10
10.0308364770147
 20
11.50086570865111
 30
0.0
 10
10.02570059604011
 20
11.49567614091108
 30
0.0
 10
10.02360006233199
 20
11.49355364975086
 30
0.0
 10
10.0207645263655
 20
11.49068847315309
 30
0.0
 10
10.02003129866044
 20
11.48994758081872
 30
0.0
 10
10.02003129866044
 20
11.48994758081872
 30
0.0
  0
ARC
  5
7A1
100
AcDbEntity
  8
0
  6
CONTINUOUS
 62
     7
100
AcDbCircle
 10
10.114438
 20
11.553846
 30
0.0
 40
0.113999
100
AcDbArc
 50
214.091908
 51
236.503901
  0
LINE
  5
7A2
100
AcDbEntity
  8
0
  6
CONTINUOUS
 62
     7
100
AcDbLine
 10
10.114438
 20
11.319594
 30
0.0
 11
10.193178
 21
11.319594
 31
0.0
  0
LINE
  5
7A3
100
AcDbEntity
  8
0
  6
CONTINUOUS
 62
     7
100
AcDbLine
 10
9.990422
 20
11.435736
 30
0.0
 11
10.238454
 21
11.435736
 31
0.0
  0
LINE
  5
7A4
100
AcDbEntity
  8
0
  6
CONTINUOUS
 62
     7
100
AcDbLine
 10
10.107367
 20
11.274319
 30
0.0
 11
10.019147
 21
11.274319
 31
0.0
  0
LINE
  5
7A5
100
AcDbEntity
  8
0
  6
CONTINUOUS
 62
     7
100
AcDbLine
 10
10.012076
 20
11.319594
 30
0.0
 11
10.114438
 21
11.319594
 31
0.0
  0
LINE
  5
7A6
100
AcDbEntity
  8
0
  6
CONTINUOUS
 62
     7
100
AcDbLine
 10
10.019147
 20
11.274319
 30
0.0
 11
10.019147
 21
11.160146
 31
0.0
  0
LINE
  5
7A7
100
AcDbEntity
  8
0
  6
CONTINUOUS
 62
     7
100
AcDbLine
 10
10.107367
 20
11.160146
 30
0.0
 11
10.107367
 21
11.274319
 31
0.0
  0
LINE
  5
7A9
100
AcDbEntity
  8
0
  6
CONTINUOUS
 62
     7
100
AcDbLine
 10
9.720737
 20
11.341642
 30
0.0
 11
9.720737
 21
11.585342
 31
0.0
  0
ARC
  5
7AA
100
AcDbEntity
  8
0
  6
CONTINUOUS
 62
     7
100
AcDbCircle
 10
9.799478
 20
11.585342
 30
0.0
 40
0.07874
100
AcDbArc
 50
90.0
 51
180.0
  0
LINE
  5
7B8
100
AcDbEntity
  8
0
  6
CONTINUOUS
 62
     7
100
AcDbLine
 10
9.720737
 20
11.341642
 30
0.0
 11
9.720737
 21
11.319594
 31
0.0
  0
LINE
  5
7B9
100
AcDbEntity
  8
0
  6
CONTINUOUS
 62
     7
100
AcDbLine
 10
9.720737
 20
11.319594
 30
0.0
 11
9.799478
 21
11.319594
 31
0.0
  0
CIRCLE
  5
7C1
100
AcDbEntity
  8
0
  6
CONTINUOUS
 62
     7
100
AcDbCircle
 10
9.913651
 20
10.415264
 30
0.0
 40
0.068898
  0
CIRCLE
  5
7C7
100
AcDbEntity
  8
0
  6
CONTINUOUS
 62
     7
100
AcDbCircle
 10
9.913651
 20
10.815264
 30
0.0
 40
0.068898
  0
CIRCLE
  5
7CA
100
AcDbEntity
  8
0
  6
CONTINUOUS
 62
     7
100
AcDbCircle
 10
9.913651
 20
11.015264
 30
0.0
 40
0.068898
  0
CIRCLE
  5
7CB
100
AcDbEntity
  8
0
  6
CONTINUOUS
 62
     7
100
AcDbCircle
 10
9.913651
 20
10.615264
 30
0.0
 40
0.068898
  0
LINE
  5
7CC
100
AcDbEntity
  8
0
  6
CONTINUOUS
 62
     7
100
AcDbLine
 10
10.019147
 20
10.674319
 30
0.0
 11
10.019147
 21
10.560146
 31
0.0
  0
CIRCLE
  5
7CE
100
AcDbEntity
  8
0
  6
CONTINUOUS
 62
     7
100
AcDbCircle
 10
10.307352
 20
10.615264
 30
0.0
 40
0.068898
  0
LINE
  5
7CF
100
AcDbEntity
  8
0
  6
CONTINUOUS
 62
     7
100
AcDbLine
 10
10.107367
 20
10.560146
 30
0.0
 11
10.107367
 21
10.674319
 31
0.0
  0
LINE
  5
7D0
100
AcDbEntity
  8
0
  6
CONTINUOUS
 62
     7
100
AcDbLine
 10
10.412848
 20
10.674319
 30
0.0
 11
10.412848
 21
10.560146
 31
0.0
  0
LINE
  5
7D1
100
AcDbEntity
  8
0
  6
CONTINUOUS
 62
     7
100
AcDbLine
 10
10.501068
 20
10.560146
 30
0.0
 11
10.501068
 21
10.674319
 31
0.0
  0
CIRCLE
  5
7D8
100
AcDbEntity
  8
0
  6
CONTINUOUS
 62
     7
100
AcDbCircle
 10
10.307352
 20
10.815264
 30
0.0
 40
0.068898
  0
CIRCLE
  5
7DA
100
AcDbEntity
  8
0
  6
CONTINUOUS
 62
     7
100
AcDbCircle
 10
10.307352
 20
11.015264
 30
0.0
 40
0.068898
  0
LINE
  5
7E4
100
AcDbEntity
  8
0
  6
CONTINUOUS
 62
     7
100
AcDbLine
 10
10.501068
 20
10.674319
 30
0.0
 11
10.412848
 21
10.674319
 31
0.0
  0
LINE
  5
7E5
100
AcDbEntity
  8
0
  6
CONTINUOUS
 62
     7
100
AcDbLine
 10
10.412848
 20
10.874319
 30
0.0
 11
10.412848
 21
10.760146
 31
0.0
  0
LINE
  5
7E6
100
AcDbEntity
  8
0
  6
CONTINUOUS
 62
     7
100
AcDbLine
 10
10.412848
 20
10.760146
 30
0.0
 11
10.501068
 21
10.760146
 31
0.0
  0
LINE
  5
7E7
100
AcDbEntity
  8
0
  6
CONTINUOUS
 62
     7
100
AcDbLine
 10
10.501068
 20
10.760146
 30
0.0
 11
10.501068
 21
10.874319
 31
0.0
  0
LINE
  5
7E8
100
AcDbEntity
  8
0
  6
CONTINUOUS
 62
     7
100
AcDbLine
 10
10.501068
 20
10.874319
 30
0.0
 11
10.412848
 21
10.874319
 31
0.0
  0
LINE
  5
7EB
100
AcDbEntity
  8
0
  6
CONTINUOUS
 62
     7
100
AcDbLine
 10
10.412848
 20
11.074319
 30
0.0
 11
10.412848
 21
10.960146
 31
0.0
  0
LINE
  5
7EC
100
AcDbEntity
  8
0
  6
CONTINUOUS
 62
     7
100
AcDbLine
 10
10.412848
 20
10.960146
 30
0.0
 11
10.501068
 21
10.960146
 31
0.0
  0
LINE
  5
7ED
100
AcDbEntity
  8
0
  6
CONTINUOUS
 62
     7
100
AcDbLine
 10
10.501068
 20
10.960146
 30
0.0
 11
10.501068
 21
11.074319
 31
0.0
  0
LINE
  5
7EE
100
AcDbEntity
  8
0
  6
CONTINUOUS
 62
     7
100
AcDbLine
 10
10.501068
 20
11.074319
 30
0.0
 11
10.412848
 21
11.074319
 31
0.0
  0
LINE
  5
7F2
100
AcDbEntity
  8
0
  6
CONTINUOUS
 62
     7
100
AcDbLine
 10
10.019147
 20
10.874319
 30
0.0
 11
10.019147
 21
10.760146
 31
0.0
  0
LINE
  5
7F6
100
AcDbEntity
  8
0
  6
CONTINUOUS
 62
     7
100
AcDbLine
 10
10.019147
 20
11.074319
 30
0.0
 11
10.019147
 21
10.960146
 31
0.0
  0
LINE
  5
83D
100
AcDbEntity
  8
0
  6
CONTINUOUS
 62
     7
100
AcDbLine
 10
10.107367
 20
10.760146
 30
0.0
 11
10.107367
 21
10.874319
 31
0.0
  0
LINE
  5
840
100
AcDbEntity
  8
0
  6
CONTINUOUS
 62
     7
100
AcDbLine
 10
10.107367
 20
10.960146
 30
0.0
 11
10.107367
 21
11.074319
 31
0.0
  0
LINE
  5
844
100
AcDbEntity
  8
0
  6
CONTINUOUS
 62
     7
100
AcDbLine
 10
10.107367
 20
10.674319
 30
0.0
 11
10.019147
 21
10.674319
 31
0.0
  0
LINE
  5
845
100
AcDbEntity
  8
0
  6
CONTINUOUS
 62
     7
100
AcDbLine
 10
10.019147
 20
10.760146
 30
0.0
 11
10.107367
 21
10.760146
 31
0.0
  0
LINE
  5
846
100
AcDbEntity
  8
0
  6
CONTINUOUS
 62
     7
100
AcDbLine
 10
10.107367
 20
10.874319
 30
0.0
 11
10.019147
 21
10.874319
 31
0.0
  0
LINE
  5
847
100
AcDbEntity
  8
0
  6
CONTINUOUS
 62
     7
100
AcDbLine
 10
10.019147
 20
10.960146
 30
0.0
 11
10.107367
 21
10.960146
 31
0.0
  0
LINE
  5
848
100
AcDbEntity
  8
0
  6
CONTINUOUS
 62
     7
100
AcDbLine
 10
10.107367
 20
11.074319
 30
0.0
 11
10.019147
 21
11.074319
 31
0.0
  0
CIRCLE
  5
855
100
AcDbEntity
  8
0
  6
CONTINUOUS
 62
     7
100
AcDbCircle
 10
10.307352
 20
10.415264
 30
0.0
 40
0.068898
  0
LINE
  5
85C
100
AcDbEntity
  8
0
  6
CONTINUOUS
 62
     7
100
AcDbLine
 10
10.501068
 20
10.274319
 30
0.0
 11
10.412848
 21
10.274319
 31
0.0
  0
LINE
  5
85D
100
AcDbEntity
  8
0
  6
CONTINUOUS
 62
     7
100
AcDbLine
 10
10.412848
 20
10.474319
 30
0.0
 11
10.412848
 21
10.360146
 31
0.0
  0
LINE
  5
85E
100
AcDbEntity
  8
0
  6
CONTINUOUS
 62
     7
100
AcDbLine
 10
10.412848
 20
10.360146
 30
0.0
 11
10.501068
 21
10.360146
 31
0.0
  0
LINE
  5
85F
100
AcDbEntity
  8
0
  6
CONTINUOUS
 62
     7
100
AcDbLine
 10
10.501068
 20
10.360146
 30
0.0
 11
10.501068
 21
10.474319
 31
0.0
  0
LINE
  5
860
100
AcDbEntity
  8
0
  6
CONTINUOUS
 62
     7
100
AcDbLine
 10
10.501068
 20
10.474319
 30
0.0
 11
10.412848
 21
10.474319
 31
0.0
  0
LINE
  5
861
100
AcDbEntity
  8
0
  6
CONTINUOUS
 62
     7
100
AcDbLine
 10
10.412848
 20
10.560146
 30
0.0
 11
10.501068
 21
10.560146
 31
0.0
  0
LINE
  5
866
100
AcDbEntity
  8
0
  6
CONTINUOUS
 62
     7
100
AcDbLine
 10
10.019147
 20
10.474319
 30
0.0
 11
10.019147
 21
10.360146
 31
0.0
  0
LINE
  5
8AF
100
AcDbEntity
  8
0
  6
CONTINUOUS
 62
     7
100
AcDbLine
 10
10.107367
 20
10.360146
 30
0.0
 11
10.107367
 21
10.474319
 31
0.0
  0
LINE
  5
8B0
100
AcDbEntity
  8
0
  6
CONTINUOUS
 62
     7
100
AcDbLine
 10
10.107367
 20
10.274319
 30
0.0
 11
10.019147
 21
10.274319
 31
0.0
  0
LINE
  5
8B1
100
AcDbEntity
  8
0
  6
CONTINUOUS
 62
     7
100
AcDbLine
 10
10.019147
 20
10.360146
 30
0.0
 11
10.107367
 21
10.360146
 31
0.0
  0
LINE
  5
8B2
100
AcDbEntity
  8
0
  6
CONTINUOUS
 62
     7
100
AcDbLine
 10
10.107367
 20
10.474319
 30
0.0
 11
10.019147
 21
10.474319
 31
0.0
  0
LINE
  5
8B3
100
AcDbEntity
  8
0
  6
CONTINUOUS
 62
     7
100
AcDbLine
 10
10.019147
 20
10.560146
 30
0.0
 11
10.107367
 21
10.560146
 31
0.0
  0
CIRCLE
  5
925
100
AcDbEntity
  8
0
  6
CONTINUOUS
 62
     7
100
AcDbCircle
 10
9.913651
 20
8.415264
 30
0.0
 40
0.068898
  0
CIRCLE
  5
926
100
AcDbEntity
  8
0
  6
CONTINUOUS
 62
     7
100
AcDbCircle
 10
10.307352
 20
8.415264
 30
0.0
 40
0.068898
  0
CIRCLE
  5
927
100
AcDbEntity
  8
0
  6
CONTINUOUS
 62
     7
100
AcDbCircle
 10
9.913651
 20
9.415264
 30
0.0
 40
0.068898
  0
CIRCLE
  5
928
100
AcDbEntity
  8
0
  6
CONTINUOUS
 62
     7
100
AcDbCircle
 10
10.307352
 20
9.415264
 30
0.0
 40
0.068898
  0
CIRCLE
  5
92F
100
AcDbEntity
  8
0
  6
CONTINUOUS
 62
     7
100
AcDbCircle
 10
9.913651
 20
9.815264
 30
0.0
 40
0.068898
  0
CIRCLE
  5
930
100
AcDbEntity
  8
0
  6
CONTINUOUS
 62
     7
100
AcDbCircle
 10
9.913651
 20
9.615264
 30
0.0
 40
0.068898
  0
CIRCLE
  5
933
100
AcDbEntity
  8
0
  6
CONTINUOUS
 62
     7
100
AcDbCircle
 10
9.913651
 20
10.015264
 30
0.0
 40
0.068898
  0
LINE
  5
934
100
AcDbEntity
  8
0
  6
CONTINUOUS
 62
     7
100
AcDbLine
 10
10.019147
 20
9.874319
 30
0.0
 11
10.019147
 21
9.760146
 31
0.0
  0
LINE
  5
936
100
AcDbEntity
  8
0
  6
CONTINUOUS
 62
     7
100
AcDbLine
 10
10.107367
 20
9.760146
 30
0.0
 11
10.107367
 21
9.874319
 31
0.0
  0
LINE
  5
937
100
AcDbEntity
  8
0
  6
CONTINUOUS
 62
     7
100
AcDbLine
 10
10.412848
 20
9.874319
 30
0.0
 11
10.412848
 21
9.760146
 31
0.0
  0
LINE
  5
938
100
AcDbEntity
  8
0
  6
CONTINUOUS
 62
     7
100
AcDbLine
 10
10.501068
 20
9.760146
 30
0.0
 11
10.501068
 21
9.874319
 31
0.0
  0
CIRCLE
  5
93A
100
AcDbEntity
  8
0
  6
CONTINUOUS
 62
     7
100
AcDbCircle
 10
10.307352
 20
9.815264
 30
0.0
 40
0.068898
  0
CIRCLE
  5
945
100
AcDbEntity
  8
0
  6
CONTINUOUS
 62
     7
100
AcDbCircle
 10
10.307352
 20
10.015264
 30
0.0
 40
0.068898
  0
LINE
  5
948
100
AcDbEntity
  8
0
  6
CONTINUOUS
 62
     7
100
AcDbLine
 10
10.501068
 20
9.874319
 30
0.0
 11
10.412848
 21
9.874319
 31
0.0
  0
LINE
  5
94A
100
AcDbEntity
  8
0
  6
CONTINUOUS
 62
     7
100
AcDbLine
 10
10.412848
 20
10.074319
 30
0.0
 11
10.412848
 21
9.960146
 31
0.0
  0
LINE
  5
94B
100
AcDbEntity
  8
0
  6
CONTINUOUS
 62
     7
100
AcDbLine
 10
10.412848
 20
9.960146
 30
0.0
 11
10.501068
 21
9.960146
 31
0.0
  0
LINE
  5
94C
100
AcDbEntity
  8
0
  6
CONTINUOUS
 62
     7
100
AcDbLine
 10
10.501068
 20
9.960146
 30
0.0
 11
10.501068
 21
10.074319
 31
0.0
  0
LINE
  5
94D
100
AcDbEntity
  8
0
  6
CONTINUOUS
 62
     7
100
AcDbLine
 10
10.501068
 20
10.074319
 30
0.0
 11
10.412848
 21
10.074319
 31
0.0
  0
LINE
  5
94E
100
AcDbEntity
  8
0
  6
CONTINUOUS
 62
     7
100
AcDbLine
 10
10.412848
 20
10.160146
 30
0.0
 11
10.501068
 21
10.160146
 31
0.0
  0
LINE
  5
96C
100
AcDbEntity
  8
0
  6
CONTINUOUS
 62
     7
100
AcDbLine
 10
10.107367
 20
9.874319
 30
0.0
 11
10.019147
 21
9.874319
 31
0.0
  0
LINE
  5
96E
100
AcDbEntity
  8
0
  6
CONTINUOUS
 62
     7
100
AcDbLine
 10
10.019147
 20
10.074319
 30
0.0
 11
10.019147
 21
9.960146
 31
0.0
  0
LINE
  5
990
100
AcDbEntity
  8
0
  6
CONTINUOUS
 62
     7
100
AcDbLine
 10
10.107367
 20
9.960146
 30
0.0
 11
10.107367
 21
10.074319
 31
0.0
  0
LINE
  5
991
100
AcDbEntity
  8
0
  6
CONTINUOUS
 62
     7
100
AcDbLine
 10
10.019147
 20
9.960146
 30
0.0
 11
10.107367
 21
9.960146
 31
0.0
  0
LINE
  5
992
100
AcDbEntity
  8
0
  6
CONTINUOUS
 62
     7
100
AcDbLine
 10
10.107367
 20
10.074319
 30
0.0
 11
10.019147
 21
10.074319
 31
0.0
  0
LINE
  5
993
100
AcDbEntity
  8
0
  6
CONTINUOUS
 62
     7
100
AcDbLine
 10
10.019147
 20
10.160146
 30
0.0
 11
10.107367
 21
10.160146
 31
0.0
  0
CIRCLE
  5
9A2
100
AcDbEntity
  8
0
  6
CONTINUOUS
 62
     7
100
AcDbCircle
 10
10.307352
 20
9.615264
 30
0.0
 40
0.068898
  0
LINE
  5
9B0
100
AcDbEntity
  8
0
  6
CONTINUOUS
 62
     7
100
AcDbLine
 10
10.412848
 20
9.474319
 30
0.0
 11
10.412848
 21
9.360146
 31
0.0
  0
LINE
  5
9B1
100
AcDbEntity
  8
0
  6
CONTINUOUS
 62
     7
100
AcDbLine
 10
10.412848
 20
9.360146
 30
0.0
 11
10.501068
 21
9.360146
 31
0.0
  0
LINE
  5
9B2
100
AcDbEntity
  8
0
  6
CONTINUOUS
 62
     7
100
AcDbLine
 10
10.501068
 20
9.360146
 30
0.0
 11
10.501068
 21
9.474319
 31
0.0
  0
LINE
  5
9B3
100
AcDbEntity
  8
0
  6
CONTINUOUS
 62
     7
100
AcDbLine
 10
10.501068
 20
9.474319
 30
0.0
 11
10.412848
 21
9.474319
 31
0.0
  0
LINE
  5
9B4
100
AcDbEntity
  8
0
  6
CONTINUOUS
 62
     7
100
AcDbLine
 10
10.412848
 20
9.560146
 30
0.0
 11
10.501068
 21
9.560146
 31
0.0
  0
LINE
  5
9BE
100
AcDbEntity
  8
0
  6
CONTINUOUS
 62
     7
100
AcDbLine
 10
10.501068
 20
9.674319
 30
0.0
 11
10.412848
 21
9.674319
 31
0.0
  0
LINE
  5
9BF
100
AcDbEntity
  8
0
  6
CONTINUOUS
 62
     7
100
AcDbLine
 10
10.412848
 20
9.760146
 30
0.0
 11
10.501068
 21
9.760146
 31
0.0
  0
LINE
  5
9C1
100
AcDbEntity
  8
0
  6
CONTINUOUS
 62
     7
100
AcDbLine
 10
10.412848
 20
9.674319
 30
0.0
 11
10.412848
 21
9.560146
 31
0.0
  0
LINE
  5
9C2
100
AcDbEntity
  8
0
  6
CONTINUOUS
 62
     7
100
AcDbLine
 10
10.501068
 20
9.560146
 30
0.0
 11
10.501068
 21
9.674319
 31
0.0
  0
LINE
  5
9D0
100
AcDbEntity
  8
0
  6
CONTINUOUS
 62
     7
100
AcDbLine
 10
10.019147
 20
9.474319
 30
0.0
 11
10.019147
 21
9.360146
 31
0.0
  0
LINE
  5
9D5
100
AcDbEntity
  8
0
  6
CONTINUOUS
 62
     7
100
AcDbLine
 10
10.019147
 20
9.674319
 30
0.0
 11
10.019147
 21
9.560146
 31
0.0
  0
LINE
  5
9F6
100
AcDbEntity
  8
0
  6
CONTINUOUS
 62
     7
100
AcDbLine
 10
10.107367
 20
9.360146
 30
0.0
 11
10.107367
 21
9.474319
 31
0.0
  0
LINE
  5
A19
100
AcDbEntity
  8
0
  6
CONTINUOUS
 62
     7
100
AcDbLine
 10
10.107367
 20
9.560146
 30
0.0
 11
10.107367
 21
9.674319
 31
0.0
  0
LINE
  5
A1A
100
AcDbEntity
  8
0
  6
CONTINUOUS
 62
     7
100
AcDbLine
 10
10.019147
 20
9.360146
 30
0.0
 11
10.107367
 21
9.360146
 31
0.0
  0
LINE
  5
A1B
100
AcDbEntity
  8
0
  6
CONTINUOUS
 62
     7
100
AcDbLine
 10
10.107367
 20
9.474319
 30
0.0
 11
10.019147
 21
9.474319
 31
0.0
  0
LINE
  5
A1C
100
AcDbEntity
  8
0
  6
CONTINUOUS
 62
     7
100
AcDbLine
 10
10.019147
 20
9.560146
 30
0.0
 11
10.107367
 21
9.560146
 31
0.0
  0
LINE
  5
A1D
100
AcDbEntity
  8
0
  6
CONTINUOUS
 62
     7
100
AcDbLine
 10
10.107367
 20
9.674319
 30
0.0
 11
10.019147
 21
9.674319
 31
0.0
  0
LINE
  5
A1E
100
AcDbEntity
  8
0
  6
CONTINUOUS
 62
     7
100
AcDbLine
 10
10.019147
 20
9.760146
 30
0.0
 11
10.107367
 21
9.760146
 31
0.0
  0
CIRCLE
  5
A7D
100
AcDbEntity
  8
0
  6
CONTINUOUS
 62
     7
100
AcDbCircle
 10
9.913651
 20
8.815264
 30
0.0
 40
0.068898
  0
CIRCLE
  5
A7E
100
AcDbEntity
  8
0
  6
CONTINUOUS
 62
     7
100
AcDbCircle
 10
9.913651
 20
9.015264
 30
0.0
 40
0.068898
  0
CIRCLE
  5
A7F
100
AcDbEntity
  8
0
  6
CONTINUOUS
 62
     7
100
AcDbCircle
 10
9.913651
 20
9.215264
 30
0.0
 40
0.068898
  0
CIRCLE
  5
A80
100
AcDbEntity
  8
0
  6
CONTINUOUS
 62
     7
100
AcDbCircle
 10
9.913651
 20
8.615264
 30
0.0
 40
0.068898
  0
CIRCLE
  5
A8C
100
AcDbEntity
  8
0
  6
CONTINUOUS
 62
     7
100
AcDbCircle
 10
10.307352
 20
9.015264
 30
0.0
 40
0.068898
  0
CIRCLE
  5
A8F
100
AcDbEntity
  8
0
  6
CONTINUOUS
 62
     7
100
AcDbCircle
 10
10.307352
 20
9.215264
 30
0.0
 40
0.068898
  0
LINE
  5
AAA
100
AcDbEntity
  8
0
  6
CONTINUOUS
 62
     7
100
AcDbLine
 10
10.412848
 20
9.074319
 30
0.0
 11
10.412848
 21
8.960146
 31
0.0
  0
LINE
  5
AAB
100
AcDbEntity
  8
0
  6
CONTINUOUS
 62
     7
100
AcDbLine
 10
10.412848
 20
8.960146
 30
0.0
 11
10.501068
 21
8.960146
 31
0.0
  0
LINE
  5
AAC
100
AcDbEntity
  8
0
  6
CONTINUOUS
 62
     7
100
AcDbLine
 10
10.501068
 20
8.960146
 30
0.0
 11
10.501068
 21
9.074319
 31
0.0
  0
LINE
  5
AAD
100
AcDbEntity
  8
0
  6
CONTINUOUS
 62
     7
100
AcDbLine
 10
10.501068
 20
9.074319
 30
0.0
 11
10.412848
 21
9.074319
 31
0.0
  0
LINE
  5
AAE
100
AcDbEntity
  8
0
  6
CONTINUOUS
 62
     7
100
AcDbLine
 10
10.412848
 20
9.160146
 30
0.0
 11
10.501068
 21
9.160146
 31
0.0
  0
LINE
  5
AC3
100
AcDbEntity
  8
0
  6
CONTINUOUS
 62
     7
100
AcDbLine
 10
10.501068
 20
9.274319
 30
0.0
 11
10.412848
 21
9.274319
 31
0.0
  0
LINE
  5
AC4
100
AcDbEntity
  8
0
  6
CONTINUOUS
 62
     7
100
AcDbLine
 10
10.412848
 20
9.274319
 30
0.0
 11
10.412848
 21
9.160146
 31
0.0
  0
LINE
  5
AC5
100
AcDbEntity
  8
0
  6
CONTINUOUS
 62
     7
100
AcDbLine
 10
10.501068
 20
9.160146
 30
0.0
 11
10.501068
 21
9.274319
 31
0.0
  0
LINE
  5
AE1
100
AcDbEntity
  8
0
  6
CONTINUOUS
 62
     7
100
AcDbLine
 10
10.019147
 20
9.074319
 30
0.0
 11
10.019147
 21
8.960146
 31
0.0
  0
LINE
  5
AF1
100
AcDbEntity
  8
0
  6
CONTINUOUS
 62
     7
100
AcDbLine
 10
10.019147
 20
9.274319
 30
0.0
 11
10.019147
 21
9.160146
 31
0.0
  0
LINE
  5
B20
100
AcDbEntity
  8
0
  6
CONTINUOUS
 62
     7
100
AcDbLine
 10
10.107367
 20
8.960146
 30
0.0
 11
10.107367
 21
9.074319
 31
0.0
  0
LINE
  5
B40
100
AcDbEntity
  8
0
  6
CONTINUOUS
 62
     7
100
AcDbLine
 10
10.107367
 20
9.160146
 30
0.0
 11
10.107367
 21
9.274319
 31
0.0
  0
LINE
  5
B41
100
AcDbEntity
  8
0
  6
CONTINUOUS
 62
     7
100
AcDbLine
 10
10.019147
 20
8.960146
 30
0.0
 11
10.107367
 21
8.960146
 31
0.0
  0
LINE
  5
B42
100
AcDbEntity
  8
0
  6
CONTINUOUS
 62
     7
100
AcDbLine
 10
10.107367
 20
9.074319
 30
0.0
 11
10.019147
 21
9.074319
 31
0.0
  0
LINE
  5
B43
100
AcDbEntity
  8
0
  6
CONTINUOUS
 62
     7
100
AcDbLine
 10
10.019147
 20
9.160146
 30
0.0
 11
10.107367
 21
9.160146
 31
0.0
  0
LINE
  5
B44
100
AcDbEntity
  8
0
  6
CONTINUOUS
 62
     7
100
AcDbLine
 10
10.107367
 20
9.274319
 30
0.0
 11
10.019147
 21
9.274319
 31
0.0
  0
CIRCLE
  5
B4A
100
AcDbEntity
  8
0
  6
CONTINUOUS
 62
     7
100
AcDbCircle
 10
10.307352
 20
8.815264
 30
0.0
 40
0.068898
  0
CIRCLE
  5
B4B
100
AcDbEntity
  8
0
  6
CONTINUOUS
 62
     7
100
AcDbCircle
 10
10.307352
 20
8.615264
 30
0.0
 40
0.068898
  0
LINE
  5
B62
100
AcDbEntity
  8
0
  6
CONTINUOUS
 62
     7
100
AcDbLine
 10
10.412848
 20
8.560146
 30
0.0
 11
10.501068
 21
8.560146
 31
0.0
  0
LINE
  5
B81
100
AcDbEntity
  8
0
  6
CONTINUOUS
 62
     7
100
AcDbLine
 10
10.501068
 20
8.674319
 30
0.0
 11
10.412848
 21
8.674319
 31
0.0
  0
LINE
  5
B82
100
AcDbEntity
  8
0
  6
CONTINUOUS
 62
     7
100
AcDbLine
 10
10.412848
 20
8.874319
 30
0.0
 11
10.412848
 21
8.760146
 31
0.0
  0
LINE
  5
B83
100
AcDbEntity
  8
0
  6
CONTINUOUS
 62
     7
100
AcDbLine
 10
10.412848
 20
8.760146
 30
0.0
 11
10.501068
 21
8.760146
 31
0.0
  0
LINE
  5
B84
100
AcDbEntity
  8
0
  6
CONTINUOUS
 62
     7
100
AcDbLine
 10
10.501068
 20
8.760146
 30
0.0
 11
10.501068
 21
8.874319
 31
0.0
  0
LINE
  5
B85
100
AcDbEntity
  8
0
  6
CONTINUOUS
 62
     7
100
AcDbLine
 10
10.501068
 20
8.874319
 30
0.0
 11
10.412848
 21
8.874319
 31
0.0
  0
LINE
  5
B8C
100
AcDbEntity
  8
0
  6
CONTINUOUS
 62
     7
100
AcDbLine
 10
10.412848
 20
8.674319
 30
0.0
 11
10.412848
 21
8.560146
 31
0.0
  0
LINE
  5
B8D
100
AcDbEntity
  8
0
  6
CONTINUOUS
 62
     7
100
AcDbLine
 10
10.501068
 20
8.560146
 30
0.0
 11
10.501068
 21
8.674319
 31
0.0
  0
LINE
  5
BC2
100
AcDbEntity
  8
0
  6
CONTINUOUS
 62
     7
100
AcDbLine
 10
10.019147
 20
8.560146
 30
0.0
 11
10.107367
 21
8.560146
 31
0.0
  0
LINE
  5
BDD
100
AcDbEntity
  8
0
  6
CONTINUOUS
 62
     7
100
AcDbLine
 10
10.019147
 20
8.874319
 30
0.0
 11
10.019147
 21
8.760146
 31
0.0
  0
LINE
  5
C0D
100
AcDbEntity
  8
0
  6
CONTINUOUS
 62
     7
100
AcDbLine
 10
10.107367
 20
8.760146
 30
0.0
 11
10.107367
 21
8.874319
 31
0.0
  0
LINE
  5
C0E
100
AcDbEntity
  8
0
  6
CONTINUOUS
 62
     7
100
AcDbLine
 10
10.107367
 20
8.674319
 30
0.0
 11
10.019147
 21
8.674319
 31
0.0
  0
LINE
  5
C0F
100
AcDbEntity
  8
0
  6
CONTINUOUS
 62
     7
100
AcDbLine
 10
10.019147
 20
8.760146
 30
0.0
 11
10.107367
 21
8.760146
 31
0.0
  0
LINE
  5
C10
100
AcDbEntity
  8
0
  6
CONTINUOUS
 62
     7
100
AcDbLine
 10
10.107367
 20
8.874319
 30
0.0
 11
10.019147
 21
8.874319
 31
0.0
  0
LINE
  5
C11
100
AcDbEntity
  8
0
  6
CONTINUOUS
 62
     7
100
AcDbLine
 10
10.019147
 20
8.674319
 30
0.0
 11
10.019147
 21
8.560146
 31
0.0
  0
LINE
  5
C12
100
AcDbEntity
  8
0
  6
CONTINUOUS
 62
     7
100
AcDbLine
 10
10.107367
 20
8.560146
 30
0.0
 11
10.107367
 21
8.674319
 31
0.0
  0
LINE
  5
C88
100
AcDbEntity
  8
0
  6
CONTINUOUS
 62
     7
100
AcDbLine
 10
9.990422
 20
7.66802
 30
0.0
 11
9.799478
 21
7.66802
 31
0.0
  0
LINE
  5
C89
100
AcDbEntity
  8
0
  6
CONTINUOUS
 62
     7
100
AcDbLine
 10
9.799478
 20
8.110933
 30
0.0
 11
10.012076
 21
8.110933
 31
0.0
  0
CIRCLE
  5
C8A
100
AcDbEntity
  8
0
  6
CONTINUOUS
 62
     7
100
AcDbCircle
 10
9.913651
 20
8.215264
 30
0.0
 40
0.068898
  0
LINE
  5
C8B
100
AcDbEntity
  8
0
  6
CONTINUOUS
 62
     7
100
AcDbLine
 10
10.508139
 20
8.012508
 30
0.0
 11
9.720737
 21
8.012508
 31
0.0
  0
LINE
  5
C8C
100
AcDbEntity
  8
0
  6
CONTINUOUS
 62
     7
100
AcDbLine
 10
10.508139
 20
8.012508
 30
0.0
 11
10.508139
 21
8.110933
 31
0.0
  0
LINE
  5
C8D
100
AcDbEntity
  8
0
  6
CONTINUOUS
 62
     7
100
AcDbLine
 10
10.193178
 20
8.110933
 30
0.0
 11
10.405777
 21
8.110933
 31
0.0
  0
CIRCLE
  5
C90
100
AcDbEntity
  8
0
  6
CONTINUOUS
 62
     7
100
AcDbCircle
 10
10.307352
 20
8.215264
 30
0.0
 40
0.068898
  0
LINE
  5
C91
100
AcDbEntity
  8
0
  6
CONTINUOUS
 62
     7
100
AcDbLine
 10
9.937273
 20
8.044004
 30
0.0
 11
10.291604
 21
8.044004
 31
0.0
  0
LINE
  5
C92
100
AcDbEntity
  8
0
  6
CONTINUOUS
 62
     7
100
AcDbLine
 10
10.291604
 20
8.079437
 30
0.0
 11
9.937273
 21
8.079437
 31
0.0
  0
LINE
  5
C93
100
AcDbEntity
  8
0
  6
CONTINUOUS
 62
     7
100
AcDbLine
 10
10.291604
 20
8.044004
 30
0.0
 11
10.291604
 21
8.079437
 31
0.0
  0
LINE
  5
C94
100
AcDbEntity
  8
0
  6
CONTINUOUS
 62
     7
100
AcDbLine
 10
10.412848
 20
8.160146
 30
0.0
 11
10.501068
 21
8.160146
 31
0.0
  0
LINE
  5
C95
100
AcDbEntity
  8
0
  6
CONTINUOUS
 62
     7
100
AcDbLine
 10
10.405777
 20
8.110933
 30
0.0
 11
10.508139
 21
8.110933
 31
0.0
  0
LINE
  5
CAC
100
AcDbEntity
  8
0
  6
CONTINUOUS
 62
     7
100
AcDbLine
 10
10.501068
 20
8.274319
 30
0.0
 11
10.412848
 21
8.274319
 31
0.0
  0
LINE
  5
CAD
100
AcDbEntity
  8
0
  6
CONTINUOUS
 62
     7
100
AcDbLine
 10
10.412848
 20
8.474319
 30
0.0
 11
10.412848
 21
8.360146
 31
0.0
  0
LINE
  5
CAE
100
AcDbEntity
  8
0
  6
CONTINUOUS
 62
     7
100
AcDbLine
 10
10.412848
 20
8.360146
 30
0.0
 11
10.501068
 21
8.360146
 31
0.0
  0
LINE
  5
CAF
100
AcDbEntity
  8
0
  6
CONTINUOUS
 62
     7
100
AcDbLine
 10
10.501068
 20
8.360146
 30
0.0
 11
10.501068
 21
8.474319
 31
0.0
  0
LINE
  5
CB0
100
AcDbEntity
  8
0
  6
CONTINUOUS
 62
     7
100
AcDbLine
 10
10.501068
 20
8.474319
 30
0.0
 11
10.412848
 21
8.474319
 31
0.0
  0
LINE
  5
CB5
100
AcDbEntity
  8
0
  6
CONTINUOUS
 62
     7
100
AcDbLine
 10
10.412848
 20
8.274319
 30
0.0
 11
10.412848
 21
8.160146
 31
0.0
  0
LINE
  5
CB6
100
AcDbEntity
  8
0
  6
CONTINUOUS
 62
     7
100
AcDbLine
 10
10.501068
 20
8.160146
 30
0.0
 11
10.501068
 21
8.274319
 31
0.0
  0
LINE
  5
CB8
100
AcDbEntity
  8
0
  6
CONTINUOUS
 62
     7
100
AcDbLine
 10
9.937273
 20
8.079437
 30
0.0
 11
9.937273
 21
8.044004
 31
0.0
  0
LINE
  5
CCE
100
AcDbEntity
  8
0
  6
CONTINUOUS
 62
     7
100
AcDbLine
 10
10.019147
 20
8.474319
 30
0.0
 11
10.019147
 21
8.360146
 31
0.0
  0
LINE
  5
CD1
100
AcDbEntity
  8
0
  6
CONTINUOUS
 62
     7
100
AcDbLine
 10
10.019147
 20
8.274319
 30
0.0
 11
10.019147
 21
8.160146
 31
0.0
  0
LINE
  5
CD3
100
AcDbEntity
  8
0
  6
CONTINUOUS
 62
     7
100
AcDbLine
 10
10.114438
 20
8.110933
 30
0.0
 11
10.193178
 21
8.110933
 31
0.0
  0
LINE
  5
CF3
100
AcDbEntity
  8
0
  6
CONTINUOUS
 62
     7
100
AcDbLine
 10
10.107367
 20
8.360146
 30
0.0
 11
10.107367
 21
8.474319
 31
0.0
  0
LINE
  5
CF4
100
AcDbEntity
  8
0
  6
CONTINUOUS
 62
     7
100
AcDbLine
 10
10.107367
 20
8.160146
 30
0.0
 11
10.107367
 21
8.274319
 31
0.0
  0
LINE
  5
CF5
100
AcDbEntity
  8
0
  6
CONTINUOUS
 62
     7
100
AcDbLine
 10
10.019147
 20
8.160146
 30
0.0
 11
10.107367
 21
8.160146
 31
0.0
  0
LINE
  5
CF6
100
AcDbEntity
  8
0
  6
CONTINUOUS
 62
     7
100
AcDbLine
 10
10.107367
 20
8.274319
 30
0.0
 11
10.019147
 21
8.274319
 31
0.0
  0
LINE
  5
CF7
100
AcDbEntity
  8
0
  6
CONTINUOUS
 62
     7
100
AcDbLine
 10
10.019147
 20
8.360146
 30
0.0
 11
10.107367
 21
8.360146
 31
0.0
  0
LINE
  5
CF8
100
AcDbEntity
  8
0
  6
CONTINUOUS
 62
     7
100
AcDbLine
 10
10.107367
 20
8.474319
 30
0.0
 11
10.019147
 21
8.474319
 31
0.0
  0
LINE
  5
CF9
100
AcDbEntity
  8
0
  6
CONTINUOUS
 62
     7
100
AcDbLine
 10
10.012076
 20
8.110933
 30
0.0
 11
10.114438
 21
8.110933
 31
0.0
  0
LINE
  5
CFA
100
AcDbEntity
  8
0
  6
CONTINUOUS
 62
     7
100
AcDbLine
 10
10.429399
 20
7.66802
 30
0.0
 11
10.238454
 21
7.66802
 31
0.0
  0
ARC
  5
CFB
100
AcDbEntity
  8
0
  6
CONTINUOUS
 62
     7
100
AcDbCircle
 10
10.429399
 20
7.74676
 30
0.0
 40
0.07874
100
AcDbArc
 50
270.0
 51
0.0
  0
LINE
  5
CFC
100
AcDbEntity
  8
0
  6
CONTINUOUS
 62
     7
100
AcDbLine
 10
10.508139
 20
8.012508
 30
0.0
 11
10.508139
 21
7.74676
 31
0.0
  0
LINE
  5
CFE
100
AcDbEntity
  8
0
  6
CONTINUOUS
 62
     7
100
AcDbLine
 10
9.990422
 20
7.916051
 30
0.0
 11
9.990422
 21
7.66802
 31
0.0
  0
LINE
  5
CFF
100
AcDbEntity
  8
0
  6
CONTINUOUS
 62
     7
100
AcDbLine
 10
9.990422
 20
7.66802
 30
0.0
 11
10.085392
 21
7.66802
 31
0.0
  0
LINE
  5
D10
100
AcDbEntity
  8
0
  6
CONTINUOUS
 62
     7
100
AcDbLine
 10
10.238454
 20
7.916051
 30
0.0
 11
10.238454
 21
7.66802
 31
0.0
  0
LINE
  5
D11
100
AcDbEntity
  8
0
  6
CONTINUOUS
 62
     7
100
AcDbLine
 10
10.143485
 20
7.66802
 30
0.0
 11
10.238454
 21
7.66802
 31
0.0
  0
LINE
  5
D16
100
AcDbEntity
  8
0
  6
CONTINUOUS
 62
     7
100
AcDbLine
 10
10.238454
 20
7.916051
 30
0.0
 11
9.990422
 21
7.916051
 31
0.0
  0
LINE
  5
D17
100
AcDbEntity
  8
0
  6
CONTINUOUS
 62
     7
100
AcDbLine
 10
9.720737
 20
8.110933
 30
0.0
 11
9.720737
 21
8.012508
 31
0.0
  0
LINE
  5
D18
100
AcDbEntity
  8
0
  6
CONTINUOUS
 62
     7
100
AcDbLine
 10
9.720737
 20
8.110933
 30
0.0
 11
9.799478
 21
8.110933
 31
0.0
  0
ARC
  5
D30
100
AcDbEntity
  8
0
  6
CONTINUOUS
 62
     7
100
AcDbCircle
 10
9.799478
 20
7.74676
 30
0.0
 40
0.07874
100
AcDbArc
 50
180.0
 51
270.0
  0
LINE
  5
D31
100
AcDbEntity
  8
0
  6
CONTINUOUS
 62
     7
100
AcDbLine
 10
9.720737
 20
8.012508
 30
0.0
 11
9.720737
 21
7.74676
 31
0.0
  0
ARC
  5
D33
100
AcDbEntity
  8
0
  6
CONTINUOUS
 62
     7
100
AcDbCircle
 10
10.114438
 20
7.778256
 30
0.0
 40
0.113999
100
AcDbArc
 50
146.503901
 51
304.091908
  0
ARC
  5
D34
100
AcDbEntity
  8
0
  6
CONTINUOUS
 62
     7
100
AcDbCircle
 10
10.114438
 20
7.778256
 30
0.0
 40
0.113999
100
AcDbArc
 50
326.503901
 51
124.091908
  0
LINE
  5
D35
100
AcDbEntity
  8
0
  6
CONTINUOUS
 62
     7
100
AcDbLine
 10
10.08528
 20
7.775943
 30
0.0
 11
10.047329
 21
7.813502
 31
0.0
  0
LINE
  5
D36
100
AcDbEntity
  8
0
  6
CONTINUOUS
 62
     7
100
AcDbLine
 10
10.078496
 20
7.844995
 30
0.0
 11
10.116447
 21
7.807437
 31
0.0
  0
ARC
  5
D37
100
AcDbEntity
  8
0
  6
CONTINUOUS
 62
     7
100
AcDbCircle
 10
10.114438
 20
7.778256
 30
0.0
 40
0.113999
100
AcDbArc
 50
124.091908
 51
146.503901
  0
SPLINE
  5
D38
100
AcDbEntity
  8
0
  6
CONTINUOUS
 62
     7
100
AcDbSpline
210
0.7034206990121558
220
0.7107737475464681
230
0.0
 70
    24
 71
     3
 72
    14
 73
    10
 74
     0
 42
0.0000001
 43
0.0000001
 40
0.0
 40
0.0
 40
0.0
 40
0.0
 40
0.25
 40
0.25
 40
0.5
 40
0.5
 40
0.75
 40
0.75
 40
1.0
 40
1.0
 40
1.0
 40
1.0
 10
10.07849630961056
 20
7.8449949386879
 30
0.0
 10
10.07490643509866
 20
7.848547675472627
 30
0.0
 10
10.0712706870969
 20
7.852145811179882
 30
0.0
 10
10.06458668289047
 20
7.858760668477746
 30
0.0
 10
10.06145747822169
 20
7.861857501109879
 30
0.0
 10
10.05626791048166
 20
7.866993382084469
 30
0.0
 10
10.05414541932144
 20
7.869093915792589
 30
0.0
 10
10.05128024272367
 20
7.871929451759072
 30
0.0
 10
10.0505393503893
 20
7.872662679464136
 30
0.0
 10
10.0505393503893
 20
7.872662679464136
 30
0.0
  0
SPLINE
  5
D39
100
AcDbEntity
  8
0
  6
CONTINUOUS
 62
     7
100
AcDbSpline
210
0.703420699012156
220
0.7107737475464679
230
0.0
 70
    24
 71
     3
 72
    14
 73
    10
 74
     0
 42
0.0000001
 43
0.0000001
 40
0.0
 40
0.0
 40
0.0
 40
0.0
 40
0.25
 40
0.25
 40
0.5
 40
0.5
 40
0.75
 40
0.75
 40
1.0
 40
1.0
 40
1.0
 40
1.0
 10
10.01937194235266
 20
7.841169470005526
 30
0.0
 10
10.01937194235266
 20
7.841169470005526
 30
0.0
 10
10.02012619018099
 20
7.840423024970853
 30
0.0
 10
10.02299110112775
 20
7.837587751907193
 30
0.0
 10
10.02509983642832
 20
7.835500831752524
 30
0.0
 10
10.03029708978613
 20
7.830357344668883
 30
0.0
 10
10.0334179142681
 20
7.827268805529424
 30
0.0
 10
10.04010433728112
 20
7.820651554447847
 30
0.0
 10
10.04373327848994
 20
7.817060155116353
 30
0.0
 10
10.04732890157391
 20
7.813501729229288
 30
0.0
  0
LINE
  5
D3A
100
AcDbEntity
  8
0
  6
CONTINUOUS
 62
     7
100
AcDbLine
 10
10.08771
 20
7.724098
 30
0.0
 11
10.112429
 21
7.749075
 31
0.0
  0
LINE
  5
D3B
100
AcDbEntity
  8
0
  6
CONTINUOUS
 62
     7
100
AcDbLine
 10
10.08528
 20
7.775943
 30
0.0
 11
10.060561
 21
7.750966
 31
0.0
  0
ARC
  5
D3C
100
AcDbEntity
  8
0
  6
CONTINUOUS
 62
     7
100
AcDbCircle
 10
10.114438
 20
7.778256
 30
0.0
 40
0.113999
100
AcDbArc
 50
304.091908
 51
326.503901
  0
LINE
  5
D3D
100
AcDbEntity
  8
0
  6
CONTINUOUS
 62
     7
100
AcDbLine
 10
10.168316
 20
7.805546
 30
0.0
 11
10.141166
 21
7.832414
 31
0.0
  0
LINE
  5
D3E
100
AcDbEntity
  8
0
  6
CONTINUOUS
 62
     7
100
AcDbLine
 10
10.143597
 20
7.780568
 30
0.0
 11
10.168316
 21
7.805546
 31
0.0
  0
LINE
  5
D3F
100
AcDbEntity
  8
0
  6
CONTINUOUS
 62
     7
100
AcDbLine
 10
10.143597
 20
7.780568
 30
0.0
 11
10.181547
 21
7.74301
 31
0.0
  0
SPLINE
  5
D40
100
AcDbEntity
  8
0
  6
CONTINUOUS
 62
     7
100
AcDbSpline
210
0.7034206990121558
220
0.7107737475464681
230
0.0
 70
    24
 71
     3
 72
    14
 73
    10
 74
     0
 42
0.0000001
 43
0.0000001
 40
0.0
 40
0.0
 40
0.0
 40
0.0
 40
0.25
 40
0.25
 40
0.5000000000000001
 40
0.5000000000000001
 40
0.75
 40
0.75
 40
1.0
 40
1.0
 40
1.0
 40
1.0
 10
10.2095043565236
 20
7.715342187367381
 30
0.0
 10
10.2095043565236
 20
7.715342187367381
 30
0.0
 10
10.20876849183693
 20
7.716070439436428
 30
0.0
 10
10.2058939046618
 20
7.718915288626604
 30
0.0
 10
10.2037957105135
 20
7.720991776678609
 30
0.0
 10
10.19858474916482
 20
7.726148829942138
 30
0.0
 10
10.19546810206618
 20
7.729233234913856
 30
0.0
 10
10.188775105078
 20
7.73585699196195
 30
0.0
 10
10.18514142045643
 20
7.739453085634961
 30
0.0
 10
10.18154739730235
 20
7.743009928143617
 30
0.0
  0
LINE
  5
D41
100
AcDbEntity
  8
0
  6
CONTINUOUS
 62
     7
100
AcDbLine
 10
10.141166
 20
7.832414
 30
0.0
 11
10.116447
 21
7.807437
 31
0.0
  0
LINE
  5
D42
100
AcDbEntity
  8
0
  6
CONTINUOUS
 62
     7
100
AcDbLine
 10
10.15038
 20
7.711517
 30
0.0
 11
10.112429
 21
7.749075
 31
0.0
  0
SPLINE
  5
D43
100
AcDbEntity
  8
0
  6
CONTINUOUS
 62
     7
100
AcDbSpline
210
0.7034206990121558
220
0.7107737475464681
230
0.0
 70
    24
 71
     3
 72
    14
 73
    10
 74
     0
 42
0.0000001
 43
0.0000001
 40
0.0
 40
0.0
 40
0.0
 40
0.0
 40
0.25
 40
0.25
 40
0.5
 40
0.5
 40
0.75
 40
0.75
 40
1.0
 40
1.0
 40
1.0
 40
1.0
 10
10.15037998926571
 20
7.711516718685006
 30
0.0
 10
10.15397116262976
 20
7.707962696484923
 30
0.0
 10
10.15761021179361
 20
7.704361293766535
 30
0.0
 10
10.16429658802841
 20
7.697744088979243
 30
0.0
 10
10.16742731446414
 20
7.694645750323044
 30
0.0
 10
10.17261793378208
 20
7.689508828649252
 30
0.0
 10
10.17473795639083
 20
7.68741073795511
 30
0.0
 10
10.17758656714987
 20
7.68459159645157
 30
0.0
 10
10.17833694848696
 20
7.68384897790877
 30
0.0
 10
10.17833694848696
 20
7.68384897790877
 30
0.0
  0
LINE
  5
D44
100
AcDbEntity
  8
0
  6
CONTINUOUS
 62
     7
100
AcDbLine
 10
10.060561
 20
7.750966
 30
0.0
 11
10.08771
 21
7.724098
 31
0.0
  0
TEXT
  5
D48
100
AcDbEntity
  8
0
100
AcDbText
 10
9.940453
 20
11.094873
 30
0.0
 40
0.04
  1
A1
  7
STYLE1
100
AcDbText
  0
TEXT
  5
D49
100
AcDbEntity
  8
0
100
AcDbText
 10
9.813572
 20
11.094873
 30
0.0
 40
0.04
  1
A2
  7
STYLE1
100
AcDbText
  0
LINE
  5
D52
100
AcDbEntity
  8
0
100
AcDbLine
 10
9.950503
 20
11.273477
 30
0.0
 11
9.855552
 21
11.178231
 31
0.0
  0
LINE
  5
D53
100
AcDbEntity
  8
0
100
AcDbLine
 10
9.971749
 20
11.252297
 30
0.0
 11
9.876798
 21
11.157051
 31
0.0
  0
LINE
  5
D54
100
AcDbEntity
  8
0
100
AcDbLine
 10
9.971749
 20
11.052297
 30
0.0
 11
9.876798
 21
10.957051
 31
0.0
  0
LINE
  5
D55
100
AcDbEntity
  8
0
100
AcDbLine
 10
9.950503
 20
11.073477
 30
0.0
 11
9.855552
 21
10.978231
 31
0.0
  0
LINE
  5
D56
100
AcDbEntity
  8
0
100
AcDbLine
 10
9.971749
 20
10.852297
 30
0.0
 11
9.876798
 21
10.757051
 31
0.0
  0
LINE
  5
D57
100
AcDbEntity
  8
0
100
AcDbLine
 10
9.950503
 20
10.873477
 30
0.0
 11
9.855552
 21
10.778231
 31
0.0
  0
LINE
  5
D58
100
AcDbEntity
  8
0
100
AcDbLine
 10
9.971749
 20
10.652297
 30
0.0
 11
9.876798
 21
10.557051
 31
0.0
  0
LINE
  5
D59
100
AcDbEntity
  8
0
100
AcDbLine
 10
9.950503
 20
10.673477
 30
0.0
 11
9.855552
 21
10.578231
 31
0.0
  0
LINE
  5
D5A
100
AcDbEntity
  8
0
100
AcDbLine
 10
9.971749
 20
10.452297
 30
0.0
 11
9.876798
 21
10.357051
 31
0.0
  0
LINE
  5
D5B
100
AcDbEntity
  8
0
100
AcDbLine
 10
9.950503
 20
10.473477
 30
0.0
 11
9.855552
 21
10.378231
 31
0.0
  0
LINE
  5
D5C
100
AcDbEntity
  8
0
100
AcDbLine
 10
9.971749
 20
10.252297
 30
0.0
 11
9.876798
 21
10.157051
 31
0.0
  0
LINE
  5
D5D
100
AcDbEntity
  8
0
100
AcDbLine
 10
9.950503
 20
10.273477
 30
0.0
 11
9.855552
 21
10.178231
 31
0.0
  0
LINE
  5
D5E
100
AcDbEntity
  8
0
100
AcDbLine
 10
9.971749
 20
10.052297
 30
0.0
 11
9.876798
 21
9.957051
 31
0.0
  0
LINE
  5
D5F
100
AcDbEntity
  8
0
100
AcDbLine
 10
9.950503
 20
10.073477
 30
0.0
 11
9.855552
 21
9.978231
 31
0.0
  0
LINE
  5
D60
100
AcDbEntity
  8
0
100
AcDbLine
 10
9.971749
 20
9.852297
 30
0.0
 11
9.876798
 21
9.757051
 31
0.0
  0
LINE
  5
D61
100
AcDbEntity
  8
0
100
AcDbLine
 10
9.950503
 20
9.873477
 30
0.0
 11
9.855552
 21
9.778231
 31
0.0
  0
LINE
  5
D62
100
AcDbEntity
  8
0
100
AcDbLine
 10
9.971749
 20
9.652297
 30
0.0
 11
9.876798
 21
9.557051
 31
0.0
  0
LINE
  5
D63
100
AcDbEntity
  8
0
100
AcDbLine
 10
9.950503
 20
9.673477
 30
0.0
 11
9.855552
 21
9.578231
 31
0.0
  0
LINE
  5
D64
100
AcDbEntity
  8
0
100
AcDbLine
 10
9.971749
 20
9.452297
 30
0.0
 11
9.876798
 21
9.357051
 31
0.0
  0
LINE
  5
D65
100
AcDbEntity
  8
0
100
AcDbLine
 10
9.950503
 20
9.473477
 30
0.0
 11
9.855552
 21
9.378231
 31
0.0
  0
LINE
  5
D66
100
AcDbEntity
  8
0
100
AcDbLine
 10
9.971749
 20
9.252297
 30
0.0
 11
9.876798
 21
9.157051
 31
0.0
  0
LINE
  5
D67
100
AcDbEntity
  8
0
100
AcDbLine
 10
9.950503
 20
9.273477
 30
0.0
 11
9.855552
 21
9.178231
 31
0.0
  0
LINE
  5
D68
100
AcDbEntity
  8
0
100
AcDbLine
 10
9.971749
 20
9.052297
 30
0.0
 11
9.876798
 21
8.957051
 31
0.0
  0
LINE
  5
D69
100
AcDbEntity
  8
0
100
AcDbLine
 10
9.950503
 20
9.073477
 30
0.0
 11
9.855552
 21
8.978231
 31
0.0
  0
LINE
  5
D6A
100
AcDbEntity
  8
0
100
AcDbLine
 10
9.971749
 20
8.852297
 30
0.0
 11
9.876798
 21
8.757051
 31
0.0
  0
LINE
  5
D6B
100
AcDbEntity
  8
0
100
AcDbLine
 10
9.950503
 20
8.873477
 30
0.0
 11
9.855552
 21
8.778231
 31
0.0
  0
LINE
  5
D6C
100
AcDbEntity
  8
0
100
AcDbLine
 10
9.971749
 20
8.652297
 30
0.0
 11
9.876798
 21
8.557051
 31
0.0
  0
LINE
  5
D6D
100
AcDbEntity
  8
0
100
AcDbLine
 10
9.950503
 20
8.673477
 30
0.0
 11
9.855552
 21
8.578231
 31
0.0
  0
LINE
  5
D6E
100
AcDbEntity
  8
0
100
AcDbLine
 10
9.971749
 20
8.452297
 30
0.0
 11
9.876798
 21
8.357051
 31
0.0
  0
LINE
  5
D6F
100
AcDbEntity
  8
0
100
AcDbLine
 10
9.950503
 20
8.473477
 30
0.0
 11
9.855552
 21
8.378231
 31
0.0
  0
LINE
  5
D70
100
AcDbEntity
  8
0
100
AcDbLine
 10
9.971749
 20
8.252297
 30
0.0
 11
9.876798
 21
8.157051
 31
0.0
  0
LINE
  5
D71
100
AcDbEntity
  8
0
100
AcDbLine
 10
9.950503
 20
8.273477
 30
0.0
 11
9.855552
 21
8.178231
 31
0.0
  0
LINE
  5
D72
100
AcDbEntity
  8
0
100
AcDbLine
 10
10.36723
 20
11.251688
 30
0.0
 11
10.272279
 21
11.156442
 31
0.0
  0
LINE
  5
D73
100
AcDbEntity
  8
0
100
AcDbLine
 10
10.345984
 20
11.272868
 30
0.0
 11
10.251033
 21
11.177622
 31
0.0
  0
LINE
  5
D74
100
AcDbEntity
  8
0
100
AcDbLine
 10
10.36545
 20
11.052297
 30
0.0
 11
10.270499
 21
10.957051
 31
0.0
  0
LINE
  5
D75
100
AcDbEntity
  8
0
100
AcDbLine
 10
10.344204
 20
11.073477
 30
0.0
 11
10.249253
 21
10.978231
 31
0.0
  0
LINE
  5
D76
100
AcDbEntity
  8
0
100
AcDbLine
 10
10.36545
 20
10.852297
 30
0.0
 11
10.270499
 21
10.757051
 31
0.0
  0
LINE
  5
D77
100
AcDbEntity
  8
0
100
AcDbLine
 10
10.344204
 20
10.873477
 30
0.0
 11
10.249253
 21
10.778231
 31
0.0
  0
LINE
  5
D78
100
AcDbEntity
  8
0
100
AcDbLine
 10
10.362843
 20
10.650955
 30
0.0
 11
10.267891
 21
10.555709
 31
0.0
  0
LINE
  5
D79
100
AcDbEntity
  8
0
100
AcDbLine
 10
10.341597
 20
10.672135
 30
0.0
 11
10.246645
 21
10.576889
 31
0.0
  0
LINE
  5
D7A
100
AcDbEntity
  8
0
100
AcDbLine
 10
10.36545
 20
10.452297
 30
0.0
 11
10.270499
 21
10.357051
 31
0.0
  0
LINE
  5
D7B
100
AcDbEntity
  8
0
100
AcDbLine
 10
10.344204
 20
10.473477
 30
0.0
 11
10.249253
 21
10.378231
 31
0.0
  0
LINE
  5
D7C
100
AcDbEntity
  8
0
100
AcDbLine
 10
10.36545
 20
10.252297
 30
0.0
 11
10.270499
 21
10.157051
 31
0.0
  0
LINE
  5
D7D
100
AcDbEntity
  8
0
100
AcDbLine
 10
10.344204
 20
10.273477
 30
0.0
 11
10.249253
 21
10.178231
 31
0.0
  0
LINE
  5
D7E
100
AcDbEntity
  8
0
100
AcDbLine
 10
10.36545
 20
10.052297
 30
0.0
 11
10.270499
 21
9.957051
 31
0.0
  0
LINE
  5
D7F
100
AcDbEntity
  8
0
100
AcDbLine
 10
10.344204
 20
10.073477
 30
0.0
 11
10.249253
 21
9.978231
 31
0.0
  0
LINE
  5
D80
100
AcDbEntity
  8
0
100
AcDbLine
 10
10.36545
 20
9.852297
 30
0.0
 11
10.270499
 21
9.757051
 31
0.0
  0
LINE
  5
D81
100
AcDbEntity
  8
0
100
AcDbLine
 10
10.344204
 20
9.873477
 30
0.0
 11
10.249253
 21
9.778231
 31
0.0
  0
LINE
  5
D82
100
AcDbEntity
  8
0
100
AcDbLine
 10
10.36545
 20
9.652297
 30
0.0
 11
10.270499
 21
9.557051
 31
0.0
  0
LINE
  5
D83
100
AcDbEntity
  8
0
100
AcDbLine
 10
10.344204
 20
9.673477
 30
0.0
 11
10.249253
 21
9.578231
 31
0.0
  0
LINE
  5
D84
100
AcDbEntity
  8
0
100
AcDbLine
 10
10.36545
 20
9.452297
 30
0.0
 11
10.270499
 21
9.357051
 31
0.0
  0
LINE
  5
D85
100
AcDbEntity
  8
0
100
AcDbLine
 10
10.344204
 20
9.473477
 30
0.0
 11
10.249253
 21
9.378231
 31
0.0
  0
LINE
  5
D86
100
AcDbEntity
  8
0
100
AcDbLine
 10
10.36545
 20
9.252297
 30
0.0
 11
10.270499
 21
9.157051
 31
0.0
  0
LINE
  5
D87
100
AcDbEntity
  8
0
100
AcDbLine
 10
10.344204
 20
9.273477
 30
0.0
 11
10.249253
 21
9.178231
 31
0.0
  0
LINE
  5
D88
100
AcDbEntity
  8
0
100
AcDbLine
 10
10.36545
 20
9.052297
 30
0.0
 11
10.270499
 21
8.957051
 31
0.0
  0
LINE
  5
D89
100
AcDbEntity
  8
0
100
AcDbLine
 10
10.344204
 20
9.073477
 30
0.0
 11
10.249253
 21
8.978231
 31
0.0
  0
LINE
  5
D8A
100
AcDbEntity
  8
0
100
AcDbLine
 10
10.36545
 20
8.852297
 30
0.0
 11
10.270499
 21
8.757051
 31
0.0
  0
LINE
  5
D8B
100
AcDbEntity
  8
0
100
AcDbLine
 10
10.344204
 20
8.873477
 30
0.0
 11
10.249253
 21
8.778231
 31
0.0
  0
LINE
  5
D8C
100
AcDbEntity
  8
0
100
AcDbLine
 10
10.36545
 20
8.652297
 30
0.0
 11
10.270499
 21
8.557051
 31
0.0
  0
LINE
  5
D8D
100
AcDbEntity
  8
0
100
AcDbLine
 10
10.344204
 20
8.673477
 30
0.0
 11
10.249253
 21
8.578231
 31
0.0
  0
LINE
  5
D8E
100
AcDbEntity
  8
0
100
AcDbLine
 10
10.36545
 20
8.452297
 30
0.0
 11
10.270499
 21
8.357051
 31
0.0
  0
LINE
  5
D8F
100
AcDbEntity
  8
0
100
AcDbLine
 10
10.344204
 20
8.473477
 30
0.0
 11
10.249253
 21
8.378231
 31
0.0
  0
LINE
  5
D90
100
AcDbEntity
  8
0
100
AcDbLine
 10
10.36545
 20
8.252297
 30
0.0
 11
10.270499
 21
8.157051
 31
0.0
  0
LINE
  5
D91
100
AcDbEntity
  8
0
100
AcDbLine
 10
10.344204
 20
8.273477
 30
0.0
 11
10.249253
 21
8.178231
 31
0.0
  0
TEXT
  5
D92
100
AcDbEntity
  8
0
100
AcDbText
 10
10.207272
 20
11.094873
 30
0.0
 40
0.04
  1
B2
  7
STYLE1
100
AcDbText
  0
TEXT
  5
D94
100
AcDbEntity
  8
0
100
AcDbText
 10
10.334154
 20
11.094873
 30
0.0
 40
0.04
  1
B1
  7
STYLE1
100
AcDbText
  0
TEXT
  5
D9B
100
AcDbEntity
  8
0
100
AcDbText
 10
10.207272
 20
10.894873
 30
0.0
 40
0.04
  1
B3
  7
STYLE1
100
AcDbText
  0
TEXT
  5
D9C
100
AcDbEntity
  8
0
100
AcDbText
 10
9.813572
 20
10.894873
 30
0.0
 40
0.04
  1
A3
  7
STYLE1
100
AcDbText
  0
TEXT
  5
D9D
100
AcDbEntity
  8
0
100
AcDbText
 10
10.207272
 20
10.694873
 30
0.0
 40
0.04
  1
B4
  7
STYLE1
100
AcDbText
  0
TEXT
  5
D9E
100
AcDbEntity
  8
0
100
AcDbText
 10
9.813572
 20
10.694873
 30
0.0
 40
0.04
  1
A4
  7
STYLE1
100
AcDbText
  0
TEXT
  5
D9F
100
AcDbEntity
  8
0
100
AcDbText
 10
10.207272
 20
10.494873
 30
0.0
 40
0.04
  1
B5
  7
STYLE1
100
AcDbText
  0
TEXT
  5
DA0
100
AcDbEntity
  8
0
100
AcDbText
 10
9.813572
 20
10.494873
 30
0.0
 40
0.04
  1
A5
  7
STYLE1
100
AcDbText
  0
TEXT
  5
DA1
100
AcDbEntity
  8
0
100
AcDbText
 10
10.207272
 20
10.294873
 30
0.0
 40
0.04
  1
B6
  7
STYLE1
100
AcDbText
  0
TEXT
  5
DA2
100
AcDbEntity
  8
0
100
AcDbText
 10
9.813572
 20
10.294873
 30
0.0
 40
0.04
  1
A6
  7
STYLE1
100
AcDbText
  0
TEXT
  5
DA3
100
AcDbEntity
  8
0
100
AcDbText
 10
10.207272
 20
10.094873
 30
0.0
 40
0.04
  1
B7
  7
STYLE1
100
AcDbText
  0
TEXT
  5
DA4
100
AcDbEntity
  8
0
100
AcDbText
 10
9.813572
 20
10.094873
 30
0.0
 40
0.04
  1
A7
  7
STYLE1
100
AcDbText
  0
TEXT
  5
DA5
100
AcDbEntity
  8
0
100
AcDbText
 10
10.207272
 20
9.894873
 30
0.0
 40
0.04
  1
B8
  7
STYLE1
100
AcDbText
  0
TEXT
  5
DA6
100
AcDbEntity
  8
0
100
AcDbText
 10
9.813572
 20
9.894873
 30
0.0
 40
0.04
  1
A8
  7
STYLE1
100
AcDbText
  0
TEXT
  5
DA7
100
AcDbEntity
  8
0
100
AcDbText
 10
10.207272
 20
9.694873
 30
0.0
 40
0.04
  1
B9
  7
STYLE1
100
AcDbText
  0
TEXT
  5
DA8
100
AcDbEntity
  8
0
100
AcDbText
 10
9.813572
 20
9.694873
 30
0.0
 40
0.04
  1
A9
  7
STYLE1
100
AcDbText
  0
TEXT
  5
DA9
100
AcDbEntity
  8
0
100
AcDbText
 10
10.207272
 20
9.494873
 30
0.0
 40
0.04
  1
B10
  7
STYLE1
100
AcDbText
  0
TEXT
  5
DAA
100
AcDbEntity
  8
0
100
AcDbText
 10
9.813572
 20
9.494873
 30
0.0
 40
0.04
  1
A10
  7
STYLE1
100
AcDbText
  0
TEXT
  5
DAB
100
AcDbEntity
  8
0
100
AcDbText
 10
10.207272
 20
9.294873
 30
0.0
 40
0.04
  1
B11
  7
STYLE1
100
AcDbText
  0
TEXT
  5
DAC
100
AcDbEntity
  8
0
100
AcDbText
 10
9.813572
 20
9.294873
 30
0.0
 40
0.04
  1
A11
  7
STYLE1
100
AcDbText
  0
TEXT
  5
DAD
100
AcDbEntity
  8
0
100
AcDbText
 10
10.207272
 20
9.094873
 30
0.0
 40
0.04
  1
B12
  7
STYLE1
100
AcDbText
  0
TEXT
  5
DAE
100
AcDbEntity
  8
0
100
AcDbText
 10
9.813572
 20
9.094873
 30
0.0
 40
0.04
  1
A12
  7
STYLE1
100
AcDbText
  0
TEXT
  5
DAF
100
AcDbEntity
  8
0
100
AcDbText
 10
10.207272
 20
8.894873
 30
0.0
 40
0.04
  1
B13
  7
STYLE1
100
AcDbText
  0
TEXT
  5
DB0
100
AcDbEntity
  8
0
100
AcDbText
 10
9.813572
 20
8.894873
 30
0.0
 40
0.04
  1
A13
  7
STYLE1
100
AcDbText
  0
TEXT
  5
DB1
100
AcDbEntity
  8
0
100
AcDbText
 10
10.207272
 20
8.694873
 30
0.0
 40
0.04
  1
B14
  7
STYLE1
100
AcDbText
  0
TEXT
  5
DB2
100
AcDbEntity
  8
0
100
AcDbText
 10
9.813572
 20
8.694873
 30
0.0
 40
0.04
  1
A14
  7
STYLE1
100
AcDbText
  0
TEXT
  5
DB3
100
AcDbEntity
  8
0
100
AcDbText
 10
10.207272
 20
8.494873
 30
0.0
 40
0.04
  1
B15
  7
STYLE1
100
AcDbText
  0
TEXT
  5
DB4
100
AcDbEntity
  8
0
100
AcDbText
 10
9.813572
 20
8.494873
 30
0.0
 40
0.04
  1
A15
  7
STYLE1
100
AcDbText
  0
TEXT
  5
DB5
100
AcDbEntity
  8
0
100
AcDbText
 10
10.207272
 20
8.294873
 30
0.0
 40
0.04
  1
B16
  7
STYLE1
100
AcDbText
  0
TEXT
  5
DB6
100
AcDbEntity
  8
0
100
AcDbText
 10
9.813572
 20
8.294873
 30
0.0
 40
0.04
  1
A16
  7
STYLE1
100
AcDbText
  0
ENDSEC
  0
SECTION
  2
OBJECTS
  0
DICTIONARY
  5
C
100
AcDbDictionary
  3
ACAD_GROUP
350
D
  3
ACAD_MLINESTYLE
350
1B
  0
DICTIONARY
  5
D
102
{ACAD_REACTORS
330
C
102
}
100
AcDbDictionary
  0
DICTIONARY
  5
1B
102
{ACAD_REACTORS
330
C
102
}
100
AcDbDictionary
  3
STANDARD
350
1C
  0
MLINESTYLE
  5
1C
102
{ACAD_REACTORS
330
1B
102
}
100
AcDbMlineStyle
  2
STANDARD
 70
     0
  3

 62
   256
 51
90.0
 52
90.0
 71
     2
 49
0.5
 62
   256
  6
BYLAYER
 49
-0.5
 62
   256
  6
BYLAYER
  0
ENDSEC
  0
EOF
