  0
SECTION
  2
HEADER
  9
$ACADVER
  1
AC1014
  9
$ACADMAINTVER
 70
     0
  9
$DWGCODEPAGE
  3
ANSI_1252
  9
$INSBASE
 10
18.447848
 20
-4.929325
 30
0.0
  9
$EXTMIN
 10
20.994378
 20
8.419914
 30
0.0
  9
$EXTMAX
 10
36.258288
 20
19.90134
 30
0.0
  9
$LIMMIN
 10
0.0
 20
0.0
  9
$LIMMAX
 10
12.0
 20
9.0
  9
$ORTHOMODE
 70
     1
  9
$REGENMODE
 70
     1
  9
$FILLMODE
 70
     1
  9
$QTEXTMODE
 70
     0
  9
$MIRRTEXT
 70
     0
  9
$DRAGMODE
 70
     2
  9
$LTSCALE
 40
0.3
  9
$OSMODE
 70
   197
  9
$ATTMODE
 70
     1
  9
$TEXTSIZE
 40
0.125
  9
$TRACEWID
 40
0.05
  9
$TEXTSTYLE
  7
STYLE4
  9
$CLAYER
  8
0
  9
$CELTYPE
  6
BYLAYER
  9
$CECOLOR
 62
   256
  9
$CELTSCALE
 40
1.0
  9
$DELOBJ
 70
     1
  9
$DISPSILH
 70
     0
  9
$DIMSCALE
 40
0.5
  9
$DIMASZ
 40
0.36
  9
$DIMEXO
 40
0.0625
  9
$DIMDLI
 40
0.38
  9
$DIMRND
 40
0.0
  9
$DIMDLE
 40
0.0
  9
$DIMEXE
 40
0.18
  9
$DIMTP
 40
0.0
  9
$DIMTM
 40
0.0
  9
$DIMTXT
 40
0.36
  9
$DIMCEN
 40
0.09
  9
$DIMTSZ
 40
0.0
  9
$DIMTOL
 70
     0
  9
$DIMLIM
 70
     0
  9
$DIMTIH
 70
     1
  9
$DIMTOH
 70
     1
  9
$DIMSE1
 70
     0
  9
$DIMSE2
 70
     0
  9
$DIMTAD
 70
     0
  9
$DIMZIN
 70
     0
  9
$DIMBLK
  1

  9
$DIMASO
 70
     1
  9
$DIMSHO
 70
     0
  9
$DIMPOST
  1

  9
$DIMAPOST
  1

  9
$DIMALT
 70
     0
  9
$DIMALTD
 70
     2
  9
$DIMALTF
 40
25.4
  9
$DIMLFAC
 40
1.0
  9
$DIMTOFL
 70
     0
  9
$DIMTVP
 40
0.0
  9
$DIMTIX
 70
     0
  9
$DIMSOXD
 70
     0
  9
$DIMSAH
 70
     0
  9
$DIMBLK1
  1

  9
$DIMBLK2
  1

  9
$DIMSTYLE
  2
STANDARD
  9
$DIMCLRD
 70
     0
  9
$DIMCLRE
 70
     0
  9
$DIMCLRT
 70
     0
  9
$DIMTFAC
 40
1.0
  9
$DIMGAP
 40
0.09
  9
$DIMJUST
 70
     0
  9
$DIMSD1
 70
     0
  9
$DIMSD2
 70
     0
  9
$DIMTOLJ
 70
     1
  9
$DIMTZIN
 70
     0
  9
$DIMALTZ
 70
     0
  9
$DIMALTTZ
 70
     0
  9
$DIMFIT
 70
     3
  9
$DIMUPT
 70
     0
  9
$DIMUNIT
 70
     2
  9
$DIMDEC
 70
     3
  9
$DIMTDEC
 70
     4
  9
$DIMALTU
 70
     2
  9
$DIMALTTD
 70
     2
  9
$DIMTXSTY
  7
STANDARD
  9
$DIMAUNIT
 70
     0
  9
$LUNITS
 70
     2
  9
$LUPREC
 70
     3
  9
$SKETCHINC
 40
0.1
  9
$FILLETRAD
 40
0.0
  9
$AUNITS
 70
     0
  9
$AUPREC
 70
     0
  9
$MENU
  1
ACAD
  9
$ELEVATION
 40
0.0
  9
$PELEVATION
 40
0.0
  9
$THICKNESS
 40
0.0
  9
$LIMCHECK
 70
     0
  9
$BLIPMODE
 70
     1
  9
$CHAMFERA
 40
0.05
  9
$CHAMFERB
 40
0.05
  9
$CHAMFERC
 40
0.0
  9
$CHAMFERD
 40
0.0
  9
$SKPOLY
 70
     0
  9
$TDCREATE
 40
2449751.597031134
  9
$TDUPDATE
 40
2456763.556851493
  9
$TDINDWG
 40
7.4254004167
  9
$TDUSRTIMER
 40
7.4254004167
  9
$USRTIMER
 70
     1
  9
$ANGBASE
 50
0.0
  9
$ANGDIR
 70
     0
  9
$PDMODE
 70
     0
  9
$PDSIZE
 40
0.0
  9
$PLINEWID
 40
0.06
  9
$COORDS
 70
     2
  9
$SPLFRAME
 70
     0
  9
$SPLINETYPE
 70
     6
  9
$SPLINESEGS
 70
     8
  9
$ATTDIA
 70
     0
  9
$ATTREQ
 70
     1
  9
$HANDLING
 70
     1
  9
$HANDSEED
  5
6372
  9
$SURFTAB1
 70
     6
  9
$SURFTAB2
 70
     6
  9
$SURFTYPE
 70
     6
  9
$SURFU
 70
     6
  9
$SURFV
 70
     6
  9
$UCSNAME
  2

  9
$UCSORG
 10
0.0
 20
0.0
 30
0.0
  9
$UCSXDIR
 10
1.0
 20
0.0
 30
0.0
  9
$UCSYDIR
 10
0.0
 20
1.0
 30
0.0
  9
$PUCSNAME
  2

  9
$PUCSORG
 10
0.0
 20
0.0
 30
0.0
  9
$PUCSXDIR
 10
1.0
 20
0.0
 30
0.0
  9
$PUCSYDIR
 10
0.0
 20
1.0
 30
0.0
  9
$USERI1
 70
     0
  9
$USERI2
 70
     0
  9
$USERI3
 70
     0
  9
$USERI4
 70
     0
  9
$USERI5
 70
     0
  9
$USERR1
 40
0.0
  9
$USERR2
 40
0.0
  9
$USERR3
 40
0.0
  9
$USERR4
 40
0.0
  9
$USERR5
 40
0.0
  9
$WORLDVIEW
 70
     1
  9
$SHADEDGE
 70
     3
  9
$SHADEDIF
 70
    70
  9
$TILEMODE
 70
     1
  9
$MAXACTVP
 70
    16
  9
$PINSBASE
 10
0.0
 20
0.0
 30
0.0
  9
$PLIMCHECK
 70
     0
  9
$PEXTMIN
 10
1.000000E+20
 20
1.000000E+20
 30
1.000000E+20
  9
$PEXTMAX
 10
-1.000000E+20
 20
-1.000000E+20
 30
-1.000000E+20
  9
$PLIMMIN
 10
0.0
 20
0.0
  9
$PLIMMAX
 10
12.0
 20
9.0
  9
$UNITMODE
 70
     0
  9
$VISRETAIN
 70
     0
  9
$PLINEGEN
 70
     0
  9
$PSLTSCALE
 70
     0
  9
$TREEDEPTH
 70
  3020
  9
$PICKSTYLE
 70
     1
  9
$CMLSTYLE
  2
STANDARD
  9
$CMLJUST
 70
     0
  9
$CMLSCALE
 40
1.0
  9
$PROXYGRAPHICS
 70
     1
  9
$MEASUREMENT
 70
     0
  0
ENDSEC
  0
SECTION
  2
CLASSES
  0
CLASS
  1
LWPOLYLINE
  2
AcDbPolyline
  3
"AutoCAD"
 90
        0
280
     0
281
     1
  0
CLASS
  1
HATCH
  2
AcDbHatch
  3
"ACAD_SEDONA"
 90
        0
280
     0
281
     1
  0
CLASS
  1
DICTIONARYVAR
  2
AcDbDictionaryVar
  3
"AutoCAD"
 90
        0
280
     0
281
     0
  0
ENDSEC
  0
SECTION
  2
TABLES
  0
TABLE
  2
VPORT
  5
8
100
AcDbSymbolTable
 70
     3
  0
VPORT
  5
6371
100
AcDbSymbolTableRecord
100
AcDbViewportTableRecord
  2
*ACTIVE
 70
     0
 10
0.0
 20
0.0
 11
1.0
 21
1.0
 12
28.626333
 22
14.160627
 13
0.0
 23
0.0
 14
0.005
 24
0.005
 15
0.0
 25
0.0
 16
0.0
 26
0.0
 36
1.0
 17
0.0
 27
0.0
 37
0.0
 40
11.562854
 41
2.107692
 42
50.0
 43
0.0
 44
0.0
 50
0.0
 51
0.0
 71
     0
 72
   100
 73
     1
 74
     0
 75
     0
 76
     0
 77
     0
 78
     1
  0
ENDTAB
  0
TABLE
  2
LTYPE
  5
5
100
AcDbSymbolTable
 70
     1
  0
LTYPE
  5
12
100
AcDbSymbolTableRecord
100
AcDbLinetypeTableRecord
  2
BYBLOCK
 70
     0
  3

 72
    65
 73
     0
 40
0.0
  0
LTYPE
  5
13
100
AcDbSymbolTableRecord
100
AcDbLinetypeTableRecord
  2
BYLAYER
 70
     0
  3

 72
    65
 73
     0
 40
0.0
  0
LTYPE
  5
14
100
AcDbSymbolTableRecord
100
AcDbLinetypeTableRecord
  2
CONTINUOUS
 70
     0
  3
Solid line
 72
    65
 73
     0
 40
0.0
  0
ENDTAB
  0
TABLE
  2
LAYER
  5
2
100
AcDbSymbolTable
 70
     7
  0
LAYER
  5
F
100
AcDbSymbolTableRecord
100
AcDbLayerTableRecord
  2
0
 70
     0
 62
     7
  6
CONTINUOUS
  0
LAYER
  5
A0
100
AcDbSymbolTableRecord
100
AcDbLayerTableRecord
  2
1
 70
     0
 62
     7
  6
CONTINUOUS
  0
LAYER
  5
A4
100
AcDbSymbolTableRecord
100
AcDbLayerTableRecord
  2
DIM
 70
     0
 62
     7
  6
CONTINUOUS
  0
LAYER
  5
3DC7
100
AcDbSymbolTableRecord
100
AcDbLayerTableRecord
  2
PCBDIMS
 70
     0
 62
     7
  6
CONTINUOUS
  0
LAYER
  5
451B
100
AcDbSymbolTableRecord
100
AcDbLayerTableRecord
  2
BORDER
 70
     0
 62
     4
  6
CONTINUOUS
  0
LAYER
  5
451E
100
AcDbSymbolTableRecord
100
AcDbLayerTableRecord
  2
TICS
 70
     0
 62
     7
  6
CONTINUOUS
  0
LAYER
  5
596C
100
AcDbSymbolTableRecord
100
AcDbLayerTableRecord
  2
CONST
 70
     1
 62
     5
  6
CONTINUOUS
  0
ENDTAB
  0
TABLE
  2
STYLE
  5
3
100
AcDbSymbolTable
 70
     9
  0
STYLE
  5
10
100
AcDbSymbolTableRecord
100
AcDbTextStyleTableRecord
  2
STANDARD
 70
     0
 40
0.0
 41
1.0
 50
0.0
 71
     0
 42
0.125
  3
ROMANS
  4

  0
STYLE
  5
8E
100
AcDbSymbolTableRecord
100
AcDbTextStyleTableRecord
  2
ROMANS
 70
     0
 40
0.0
 41
1.0
 50
0.0
 71
     0
 42
0.18
  3
ROMANS
  4

  0
STYLE
  5
4521
100
AcDbSymbolTableRecord
100
AcDbTextStyleTableRecord
  2
SIM1
 70
     0
 40
0.0
 41
0.8
 50
0.0
 71
     0
 42
0.1
  3
SIMPLEX
  4

  0
STYLE
  5
4522
100
AcDbSymbolTableRecord
100
AcDbTextStyleTableRecord
  2
COM2
 70
     0
 40
0.18
 41
0.6
 50
0.0
 71
     0
 42
0.18
  3
COMPLEX
  4

  0
STYLE
  5
4524
100
AcDbSymbolTableRecord
100
AcDbTextStyleTableRecord
  2
SN5
 70
     0
 40
0.0
 41
0.000004
 50
0.0
 71
     0
 42
0.0
  3
ROMANS
  4

  0
STYLE
  5
4BCA
100
AcDbSymbolTableRecord
100
AcDbTextStyleTableRecord
  2
STYLE1
 70
     0
 40
0.1
 41
1.0
 50
5.0
 71
     0
 42
0.1
  3
ARIAL.TTF
  4

1001
ACAD
1000
Arial
1071
       34
  0
STYLE
  5
4BCB
100
AcDbSymbolTableRecord
100
AcDbTextStyleTableRecord
  2
STYLE2
 70
     0
 40
0.09
 41
0.73
 50
10.0
 71
     0
 42
0.09
  3
verdana.TTF
  4

1001
ACAD
1000
Verdana
1071
       34
  0
STYLE
  5
4BCC
100
AcDbSymbolTableRecord
100
AcDbTextStyleTableRecord
  2
STYLE3
 70
     0
 40
0.0
 41
0.8
 50
0.0
 71
     0
 42
0.06
  3
verdana.TTF
  4

1001
ACAD
1000
Verdana
1071
       34
  0
STYLE
  5
636E
100
AcDbSymbolTableRecord
100
AcDbTextStyleTableRecord
  2
STYLE4
 70
     0
 40
0.1
 41
1.0
 50
5.0
 71
     0
 42
0.125
  3
swzblkn.ttf
  4

1001
ACAD
1000
SwitzerlandBlack
1071
       34
  0
ENDTAB
  0
TABLE
  2
VIEW
  5
6
100
AcDbSymbolTable
 70
     0
  0
ENDTAB
  0
TABLE
  2
UCS
  5
7
100
AcDbSymbolTable
 70
     0
  0
ENDTAB
  0
TABLE
  2
APPID
  5
9
100
AcDbSymbolTable
 70
     1
  0
APPID
  5
11
100
AcDbSymbolTableRecord
100
AcDbRegAppTableRecord
  2
ACAD
 70
     0
  0
ENDTAB
  0
TABLE
  2
DIMSTYLE
  5
A
100
AcDbSymbolTable
 70
     1
  0
DIMSTYLE
105
1BE5
100
AcDbSymbolTableRecord
100
AcDbDimStyleTableRecord
  2
STANDARD
 70
     0
  3

  4

  5

  6

  7

 40
1.0
 41
0.18
 42
0.0625
 43
0.38
 44
0.18
 45
0.0
 46
0.0
 47
0.0
 48
0.0
140
0.18
141
0.09
142
0.0
143
25.4
144
1.0
145
0.0
146
1.0
147
0.09
 71
     0
 72
     0
 73
     1
 74
     1
 75
     0
 76
     0
 77
     0
 78
     0
170
     0
171
     2
172
     0
173
     0
174
     0
175
     0
176
     0
177
     0
178
     0
270
     2
271
     4
272
     4
273
     2
274
     2
340
10
275
     0
280
     0
281
     0
282
     0
283
     1
284
     0
285
     0
286
     0
287
     3
288
     0
  0
ENDTAB
  0
TABLE
  2
BLOCK_RECORD
  5
1
100
AcDbSymbolTable
 70
     2
  0
BLOCK_RECORD
  5
18
100
AcDbSymbolTableRecord
100
AcDbBlockTableRecord
  2
*MODEL_SPACE
  0
BLOCK_RECORD
  5
15
100
AcDbSymbolTableRecord
100
AcDbBlockTableRecord
  2
*PAPER_SPACE
  0
BLOCK_RECORD
  5
4441
100
AcDbSymbolTableRecord
100
AcDbBlockTableRecord
  2
CSHEET
  0
BLOCK_RECORD
  5
580F
100
AcDbSymbolTableRecord
100
AcDbBlockTableRecord
  2
A$C3A441B30
  0
ENDTAB
  0
ENDSEC
  0
SECTION
  2
BLOCKS
  0
BLOCK
  5
C7
100
AcDbEntity
  8
0
100
AcDbBlockBegin
  2
*MODEL_SPACE
 70
     0
 10
0.0
 20
0.0
 30
0.0
  3
*MODEL_SPACE
  1

  0
ENDBLK
  5
C8
100
AcDbEntity
  8
0
100
AcDbBlockEnd
  0
BLOCK
  5
C5
100
AcDbEntity
 67
     1
  8
0
100
AcDbBlockBegin
  2
*PAPER_SPACE
 70
     0
 10
0.0
 20
0.0
 30
0.0
  3
*PAPER_SPACE
  1

  0
ENDBLK
  5
C6
100
AcDbEntity
 67
     1
  8
0
100
AcDbBlockEnd
  0
BLOCK
  5
44C1
100
AcDbEntity
  8
0
100
AcDbBlockBegin
  2
CSHEET
 70
     0
 10
0.0
 20
0.0
 30
0.0
  3
CSHEET
  1

  0
LWPOLYLINE
  5
4442
100
AcDbEntity
  8
BORDER
100
AcDbPolyline
 90
        4
 70
     1
 43
0.03
 10
0.5
 20
0.75
 10
21.5
 20
0.75
 10
21.5
 20
16.25
 10
0.5
 20
16.25
  0
LWPOLYLINE
  5
4443
100
AcDbEntity
  8
BORDER
100
AcDbPolyline
 90
        2
 70
     0
 10
11.0
 20
0.736398
 40
0.0
 41
0.2
 10
11.0
 20
0.536398
 40
0.2
 41
0.2
  0
LWPOLYLINE
  5
4444
100
AcDbEntity
  8
BORDER
100
AcDbPolyline
 90
        2
 70
     0
 43
0.015
 10
5.5
 20
0.75
 10
5.5
 20
0.35
  0
TEXT
  5
4445
100
AcDbEntity
  8
BORDER
100
AcDbText
 10
2.671429
 20
0.3
 30
0.0
 40
0.2
  1
4
 41
1.1
  7
SIM1
 72
     4
 11
2.75
 21
0.4
 31
0.0
100
AcDbText
  0
TEXT
  5
4446
100
AcDbEntity
  8
BORDER
100
AcDbText
 10
8.176667
 20
0.3
 30
0.0
 40
0.2
  1
3
 41
1.1
  7
SIM1
 72
     4
 11
8.25
 21
0.4
 31
0.0
100
AcDbText
  0
TEXT
  5
4447
100
AcDbEntity
  8
BORDER
100
AcDbText
 10
13.676667
 20
0.3
 30
0.0
 40
0.2
  1
2
 41
1.1
  7
SIM1
 72
     4
 11
13.75
 21
0.4
 31
0.0
100
AcDbText
  0
TEXT
  5
4448
100
AcDbEntity
  8
BORDER
100
AcDbText
 10
19.22381
 20
0.3
 30
0.0
 40
0.2
  1
1
 41
1.1
  7
SIM1
 72
     4
 11
19.25
 21
0.4
 31
0.0
100
AcDbText
  0
TEXT
  5
4449
100
AcDbEntity
  8
BORDER
100
AcDbText
 10
2.671429
 20
16.5
 30
0.0
 40
0.2
  1
4
 41
1.1
  7
SIM1
 72
     4
 11
2.75
 21
16.6
 31
0.0
100
AcDbText
  0
LWPOLYLINE
  5
444A
100
AcDbEntity
  8
BORDER
100
AcDbPolyline
 90
        2
 70
     0
 43
0.015
 10
5.5
 20
16.65
 10
5.5
 20
16.25
  0
TEXT
  5
444B
100
AcDbEntity
  8
BORDER
100
AcDbText
 10
8.176667
 20
16.5
 30
0.0
 40
0.2
  1
3
 41
1.1
  7
SIM1
 72
     4
 11
8.25
 21
16.6
 31
0.0
100
AcDbText
  0
TEXT
  5
444C
100
AcDbEntity
  8
BORDER
100
AcDbText
 10
13.676667
 20
16.5
 30
0.0
 40
0.2
  1
2
 41
1.1
  7
SIM1
 72
     4
 11
13.75
 21
16.6
 31
0.0
100
AcDbText
  0
TEXT
  5
444D
100
AcDbEntity
  8
BORDER
100
AcDbText
 10
19.22381
 20
16.5
 30
0.0
 40
0.2
  1
1
 41
1.1
  7
SIM1
 72
     4
 11
19.25
 21
16.6
 31
0.0
100
AcDbText
  0
LWPOLYLINE
  5
444E
100
AcDbEntity
  8
BORDER
100
AcDbPolyline
 90
        2
 70
     0
 43
0.015
 10
21.5
 20
12.75
 10
21.9
 20
12.75
  0
LWPOLYLINE
  5
444F
100
AcDbEntity
  8
BORDER
100
AcDbPolyline
 90
        2
 70
     0
 10
11.0
 20
16.264318
 40
0.0
 41
0.2
 10
11.0
 20
16.464318
 40
0.2
 41
0.2
  0
TEXT
  5
4450
100
AcDbEntity
  8
BORDER
100
AcDbText
 10
21.676667
 20
14.75
 30
0.0
 40
0.2
  1
D
 41
1.1
  7
SIM1
 72
     4
 11
21.75
 21
14.85
 31
0.0
100
AcDbText
  0
TEXT
  5
4451
100
AcDbEntity
  8
BORDER
100
AcDbText
 10
21.671429
 20
10.5
 30
0.0
 40
0.2
  1
C
 41
1.1
  7
SIM1
 72
     4
 11
21.75
 21
10.6
 31
0.0
100
AcDbText
  0
LWPOLYLINE
  5
4452
100
AcDbEntity
  8
BORDER
100
AcDbPolyline
 90
        2
 70
     0
 43
0.015
 10
21.5
 20
4.25
 10
21.9
 20
4.25
  0
TEXT
  5
4453
100
AcDbEntity
  8
BORDER
100
AcDbText
 10
21.676667
 20
6.25
 30
0.0
 40
0.2
  1
B
 41
1.1
  7
SIM1
 72
     4
 11
21.75
 21
6.35
 31
0.0
100
AcDbText
  0
TEXT
  5
4454
100
AcDbEntity
  8
BORDER
100
AcDbText
 10
21.66619
 20
2.0
 30
0.0
 40
0.2
  1
A
 41
1.1
  7
SIM1
 72
     4
 11
21.75
 21
2.1
 31
0.0
100
AcDbText
  0
TEXT
  5
4455
100
AcDbEntity
  8
BORDER
100
AcDbText
 10
0.16619
 20
2.0
 30
0.0
 40
0.2
  1
A
 41
1.1
  7
SIM1
 72
     4
 11
0.25
 21
2.1
 31
0.0
100
AcDbText
  0
LWPOLYLINE
  5
4456
100
AcDbEntity
  8
BORDER
100
AcDbPolyline
 90
        2
 70
     0
 43
0.015
 10
0.1
 20
4.25
 10
0.5
 20
4.25
  0
TEXT
  5
4457
100
AcDbEntity
  8
BORDER
100
AcDbText
 10
0.176667
 20
6.25
 30
0.0
 40
0.2
  1
B
 41
1.1
  7
SIM1
 72
     4
 11
0.25
 21
6.35
 31
0.0
100
AcDbText
  0
TEXT
  5
4458
100
AcDbEntity
  8
BORDER
100
AcDbText
 10
0.171429
 20
10.5
 30
0.0
 40
0.2
  1
C
 41
1.1
  7
SIM1
 72
     4
 11
0.25
 21
10.6
 31
0.0
100
AcDbText
  0
LWPOLYLINE
  5
4459
100
AcDbEntity
  8
BORDER
100
AcDbPolyline
 90
        2
 70
     0
 43
0.015
 10
0.1
 20
12.75
 10
0.5
 20
12.75
  0
TEXT
  5
445A
100
AcDbEntity
  8
BORDER
100
AcDbText
 10
0.176667
 20
14.75
 30
0.0
 40
0.2
  1
D
 41
1.1
  7
SIM1
 72
     4
 11
0.25
 21
14.85
 31
0.0
100
AcDbText
  0
LWPOLYLINE
  5
445B
100
AcDbEntity
  8
BORDER
100
AcDbPolyline
 90
        2
 70
     0
 10
0.485682
 20
8.5
 40
0.0
 41
0.2
 10
0.285682
 20
8.5
 40
0.2
 41
0.2
  0
LWPOLYLINE
  5
445C
100
AcDbEntity
  8
BORDER
100
AcDbPolyline
 90
        2
 70
     0
 43
0.015
 10
16.5
 20
0.75
 10
16.5
 20
0.35
  0
LWPOLYLINE
  5
445D
100
AcDbEntity
  8
BORDER
100
AcDbPolyline
 90
        2
 70
     0
 43
0.015
 10
16.5
 20
16.65
 10
16.5
 20
16.25
  0
TEXT
  5
445E
100
AcDbEntity
  8
BORDER
100
AcDbText
 10
15.310215
 20
1.157369
 30
0.0
 40
0.0615
  1
Control Technology Inc. ("CTI") and may not be
 41
1.4596
  7
SIM1
 72
     5
 11
18.661456
 21
1.157369
 31
0.0
100
AcDbText
  0
TEXT
  5
445F
100
AcDbEntity
  8
BORDER
100
AcDbText
 10
18.224027
 20
1.700158
 30
0.0
 40
0.055
  1
DATE
 41
1.15
  7
SIM1
100
AcDbText
  0
TEXT
  5
4460
100
AcDbEntity
  8
BORDER
100
AcDbText
 10
18.224027
 20
1.965125
 30
0.0
 40
0.055
  1
DATE
 41
1.15
  7
SIM1
100
AcDbText
  0
TEXT
  5
4461
100
AcDbEntity
  8
BORDER
100
AcDbText
 10
18.220813
 20
2.226163
 30
0.0
 40
0.055
  1
DATE
 41
1.15
  7
SIM1
100
AcDbText
  0
TEXT
  5
4462
100
AcDbEntity
  8
BORDER
100
AcDbText
 10
18.220813
 20
2.488273
 30
0.0
 40
0.055
  1
DATE
 41
1.15
  7
SIM1
100
AcDbText
  0
TEXT
  5
4463
100
AcDbEntity
  8
BORDER
100
AcDbText
 10
18.220813
 20
2.743241
 30
0.0
 40
0.055
  1
DATE
 41
1.15
  7
SIM1
100
AcDbText
  0
TEXT
  5
4464
100
AcDbEntity
  8
BORDER
100
AcDbText
 10
17.238116
 20
1.697658
 30
0.0
 40
0.055
  1
RELEASED
 41
1.15
  7
SIM1
100
AcDbText
  0
TEXT
  5
4465
100
AcDbEntity
  8
BORDER
100
AcDbText
 10
17.238116
 20
1.963339
 30
0.0
 40
0.055
  1
ENG.
 41
1.15
  7
SIM1
100
AcDbText
  0
TEXT
  5
4466
100
AcDbEntity
  8
BORDER
100
AcDbText
 10
17.238116
 20
2.225449
 30
0.0
 40
0.055
  1
MFG.
 41
1.15
  7
SIM1
100
AcDbText
  0
TEXT
  5
4467
100
AcDbEntity
  8
BORDER
100
AcDbText
 10
17.238116
 20
2.488987
 30
0.0
 40
0.055
  1
CHECKED
 41
1.15
  7
SIM1
100
AcDbText
  0
TEXT
  5
4468
100
AcDbEntity
  8
BORDER
100
AcDbText
 10
17.238116
 20
2.745383
 30
0.0
 40
0.055
  1
DRAWN
 41
1.15
  7
SIM1
100
AcDbText
  0
LINE
  5
4469
100
AcDbEntity
  8
BORDER
100
AcDbLine
 10
21.502779
 20
15.084737
 30
0.0
 11
15.250582
 21
15.084737
 31
0.0
  0
LINE
  5
446A
100
AcDbEntity
  8
BORDER
100
AcDbLine
 10
15.25
 20
15.333992
 30
0.0
 11
21.502779
 21
15.333992
 31
0.0
  0
TEXT
  5
446B
100
AcDbEntity
  8
BORDER
100
AcDbText
 10
15.354448
 20
0.813339
 30
0.0
 40
0.0615
  1
c
 41
1.1
  7
SIM1
 72
     4
 11
15.373776
 21
0.833839
 31
0.0
100
AcDbText
  0
CIRCLE
  5
446C
100
AcDbEntity
  8
BORDER
100
AcDbCircle
 10
15.37349
 20
0.833553
 30
0.0
 40
0.039422
  0
LWPOLYLINE
  5
446D
100
AcDbEntity
  8
BORDER
100
AcDbPolyline
 90
        2
 70
     0
 43
0.024606
 10
17.193898
 20
3.005525
 10
17.193898
 20
1.529822
  0
TEXT
  5
446E
100
AcDbEntity
  8
BORDER
100
AcDbText
 10
15.456286
 20
0.808815
 30
0.0
 40
0.0615
  1
19    CTI. All Rights Reserved. An unpublished work.
 41
1.25
  7
SIM1
100
AcDbText
  0
LINE
  5
446F
100
AcDbEntity
  8
BORDER
100
AcDbLine
 10
15.590193
 20
0.796317
 30
0.0
 11
15.8098
 21
0.796317
 31
0.0
  0
TEXT
  5
4470
100
AcDbEntity
  8
BORDER
100
AcDbText
 10
15.307025
 20
0.954511
 30
0.0
 40
0.0615
  1
without the prior written consent of CTI.
 41
1.371177
  7
SIM1
 72
     5
 11
17.973377
 21
0.954511
 31
0.0
100
AcDbText
  0
TEXT
  5
4471
100
AcDbEntity
  8
BORDER
100
AcDbText
 10
15.307025
 20
1.055927
 30
0.0
 40
0.0615
  1
reproduced, copied, used, or disclosed to others
 41
1.438944
  7
SIM1
 72
     5
 11
18.657194
 21
1.055927
 31
0.0
100
AcDbText
  0
TEXT
  5
4472
100
AcDbEntity
  8
BORDER
100
AcDbText
 10
15.307025
 20
1.258759
 30
0.0
 40
0.0615
  1
This drawing is the property of and proprietary to
 41
1.38494
  7
SIM1
 72
     5
 11
18.657194
 21
1.258759
 31
0.0
100
AcDbText
  0
TEXT
  5
4473
100
AcDbEntity
  8
BORDER
100
AcDbText
 10
15.815512
 20
1.412668
 30
0.0
 40
0.07
  1
CONFIDENTIAL AND PROPRIETARY
 41
1.25
  7
SIM1
 72
     1
 11
16.921762
 21
1.412668
 31
0.0
100
AcDbText
  0
TEXT
  5
4474
100
AcDbEntity
  8
BORDER
100
AcDbText
 10
20.704826
 20
15.670741
 30
0.0
 40
0.082
  1
DFT./DATE
 41
1.1
  7
SIM1
100
AcDbText
  0
LWPOLYLINE
  5
4475
100
AcDbEntity
  8
BORDER
100
AcDbPolyline
 90
        3
 70
     0
 43
0.015
 10
15.25
 20
16.25
 10
21.5
 20
16.25
 10
21.5
 20
15.6
  0
LWPOLYLINE
  5
4476
100
AcDbEntity
  8
BORDER
100
AcDbPolyline
 90
        2
 70
     0
 43
0.024606
 10
15.25
 20
15.839925
 10
15.25
 20
16.25
  0
LWPOLYLINE
  5
4477
100
AcDbEntity
  8
BORDER
100
AcDbPolyline
 90
        2
 70
     0
 43
0.024606
 10
21.5
 20
15.839925
 10
15.25
 20
15.839925
  0
LWPOLYLINE
  5
4478
100
AcDbEntity
  8
BORDER
100
AcDbPolyline
 90
        2
 70
     0
 43
0.024606
 10
21.5
 20
15.593832
 10
15.25
 20
15.593832
  0
TEXT
  5
4479
100
AcDbEntity
  8
BORDER
100
AcDbText
 10
17.726911
 20
15.964365
 30
0.0
 40
0.164042
  1
REVISIONS
 41
1.25
  7
SIM1
 72
     4
 11
18.478771
 21
16.046386
 31
0.0
100
AcDbText
  0
TEXT
  5
447A
100
AcDbEntity
  8
BORDER
100
AcDbText
 10
15.296508
 20
15.676014
 30
0.0
 40
0.082021
  1
REV.
 41
1.1
  7
SIM1
100
AcDbText
  0
TEXT
  5
447B
100
AcDbEntity
  8
BORDER
100
AcDbText
 10
15.699935
 20
15.675123
 30
0.0
 40
0.082021
  1
ECO NO.
 41
1.1
  7
SIM1
100
AcDbText
  0
TEXT
  5
447C
100
AcDbEntity
  8
BORDER
100
AcDbText
 10
17.575633
 20
15.677505
 30
0.0
 40
0.082021
  1
DESCRIPTION
 41
1.1
  7
SIM1
100
AcDbText
  0
TEXT
  5
447D
100
AcDbEntity
  8
BORDER
100
AcDbText
 10
19.767037
 20
15.669502
 30
0.0
 40
0.082021
  1
ENG./DATE
 41
1.1
  7
SIM1
100
AcDbText
  0
LWPOLYLINE
  5
447E
100
AcDbEntity
  8
BORDER
100
AcDbPolyline
 90
        2
 70
     0
 43
0.024606
 10
20.595801
 20
15.839895
 10
20.595801
 20
15.593832
  0
LWPOLYLINE
  5
447F
100
AcDbEntity
  8
BORDER
100
AcDbPolyline
 90
        2
 70
     0
 43
0.024606
 10
19.650591
 20
15.839895
 10
19.650591
 20
15.593832
  0
LWPOLYLINE
  5
4480
100
AcDbEntity
  8
BORDER
100
AcDbPolyline
 90
        2
 70
     0
 43
0.024606
 10
15.25
 20
15.839925
 10
15.25
 20
15.581572
  0
LWPOLYLINE
  5
4481
100
AcDbEntity
  8
BORDER
100
AcDbPolyline
 90
        2
 70
     0
 43
0.024606
 10
15.594488
 20
15.839895
 10
15.594488
 20
15.593832
  0
LWPOLYLINE
  5
4482
100
AcDbEntity
  8
BORDER
100
AcDbPolyline
 90
        2
 70
     0
 43
0.024606
 10
16.34273
 20
15.839895
 10
16.34273
 20
15.593832
  0
LWPOLYLINE
  5
4483
100
AcDbEntity
  8
BORDER
100
AcDbPolyline
 90
        2
 70
     0
 43
0.012303
 10
15.25559
 20
1.734199
 10
17.193898
 20
1.734199
  0
LWPOLYLINE
  5
4484
100
AcDbEntity
  8
BORDER
100
AcDbPolyline
 90
        2
 70
     0
 43
0.024606
 10
18.711286
 20
1.529147
 10
15.25559
 20
1.529147
  0
TEXT
  5
4485
100
AcDbEntity
  8
BORDER
100
AcDbText
 10
15.53983
 20
1.570383
 30
0.0
 40
0.052288
  1
UNLESS OTHERWISE NOTED
 41
1.25
  7
SIM1
100
AcDbText
  0
TEXT
  5
4486
100
AcDbEntity
  8
BORDER
100
AcDbText
 10
15.511802
 20
1.64916
 30
0.0
 40
0.052288
  1
DIMENSIONS ARE IN INCHES
 41
1.25
  7
SIM1
100
AcDbText
  0
TEXT
  5
4487
100
AcDbEntity
  8
BORDER
100
AcDbText
 10
16.456593
 20
1.784814
 30
0.0
 40
0.061516
  1
+/-
 41
1.25
  7
SIM1
100
AcDbText
  0
TEXT
  5
4488
100
AcDbEntity
  8
BORDER
100
AcDbText
 10
16.456593
 20
1.907846
 30
0.0
 40
0.061516
  1
+/-
 41
1.25
  7
SIM1
100
AcDbText
  0
TEXT
  5
4489
100
AcDbEntity
  8
BORDER
100
AcDbText
 10
15.364629
 20
1.781209
 30
0.0
 40
0.061516
  1
ANGLES
 41
1.25
  7
SIM1
100
AcDbText
  0
TEXT
  5
448A
100
AcDbEntity
  8
BORDER
100
AcDbText
 10
15.364629
 20
1.904241
 30
0.0
 40
0.061516
  1
FRACTIONS
 41
1.25
  7
SIM1
100
AcDbText
  0
TEXT
  5
448B
100
AcDbEntity
  8
BORDER
100
AcDbText
 10
16.061808
 20
2.027272
 30
0.0
 40
0.061516
  1
.XXX  +/-
 41
1.25
  7
SIM1
100
AcDbText
  0
TEXT
  5
448C
100
AcDbEntity
  8
BORDER
100
AcDbText
 10
16.061808
 20
2.150304
 30
0.0
 40
0.061516
  1
.XX   +/-
 41
1.25
  7
SIM1
100
AcDbText
  0
TEXT
  5
448D
100
AcDbEntity
  8
BORDER
100
AcDbText
 10
15.364629
 20
2.273335
 30
0.0
 40
0.061516
  1
DECIMALS  .X    +/-
 41
1.25
  7
SIM1
100
AcDbText
  0
LWPOLYLINE
  5
448E
100
AcDbEntity
  8
BORDER
100
AcDbPolyline
 90
        2
 70
     0
 43
0.012303
 10
17.18301
 20
2.393923
 10
15.244703
 20
2.393923
  0
TEXT
  5
448F
100
AcDbEntity
  8
BORDER
100
AcDbText
 10
15.84903
 20
2.421909
 30
0.0
 40
0.061516
  1
TOLERANCES
 41
1.25
  7
SIM1
 72
     1
 11
16.206041
 21
2.421909
 31
0.0
100
AcDbText
  0
TEXT
  5
4490
100
AcDbEntity
  8
BORDER
100
AcDbText
 10
15.304268
 20
2.660318
 30
0.0
 40
0.061516
  1
FINISH
 41
1.25
  7
SIM1
100
AcDbText
  0
TEXT
  5
4491
100
AcDbEntity
  8
BORDER
100
AcDbText
 10
15.30607
 20
2.896913
 30
0.0
 40
0.061516
  1
MATERIAL
 41
1.25
  7
SIM1
100
AcDbText
  0
LWPOLYLINE
  5
4492
100
AcDbEntity
  8
BORDER
100
AcDbPolyline
 90
        2
 70
     0
 43
0.024606
 10
17.193898
 20
2.513399
 10
15.25559
 20
2.513399
  0
LWPOLYLINE
  5
4493
100
AcDbEntity
  8
BORDER
100
AcDbPolyline
 90
        2
 70
     0
 43
0.012303
 10
17.193898
 20
2.759462
 10
15.25559
 20
2.759462
  0
LWPOLYLINE
  5
4494
100
AcDbEntity
  8
BORDER
100
AcDbPolyline
 90
        2
 70
     0
 43
0.012303
 10
17.193898
 20
1.791614
 10
18.711286
 20
1.791614
  0
LWPOLYLINE
  5
4495
100
AcDbEntity
  8
BORDER
100
AcDbPolyline
 90
        2
 70
     0
 43
0.012303
 10
17.193898
 20
2.054081
 10
18.711286
 20
2.054081
  0
LWPOLYLINE
  5
4496
100
AcDbEntity
  8
BORDER
100
AcDbPolyline
 90
        2
 70
     0
 43
0.012303
 10
17.193898
 20
2.316549
 10
18.711286
 20
2.316549
  0
LWPOLYLINE
  5
4497
100
AcDbEntity
  8
BORDER
100
AcDbPolyline
 90
        2
 70
     0
 43
0.012303
 10
18.177684
 20
2.841483
 10
18.177684
 20
1.529147
  0
LWPOLYLINE
  5
4498
100
AcDbEntity
  8
BORDER
100
AcDbPolyline
 90
        2
 70
     0
 43
0.012303
 10
17.193898
 20
2.579016
 10
18.711286
 20
2.579016
  0
LWPOLYLINE
  5
4499
100
AcDbEntity
  8
BORDER
100
AcDbPolyline
 90
        2
 70
     0
 43
0.024606
 10
18.711286
 20
2.841483
 10
17.193898
 20
2.841483
  0
TEXT
  5
449A
100
AcDbEntity
  8
BORDER
100
AcDbText
 10
17.602538
 20
2.89511
 30
0.0
 40
0.061516
  1
APPROVALS
 41
1.25
  7
SIM1
 72
     1
 11
17.932087
 21
2.89511
 31
0.0
100
AcDbText
  0
LWPOLYLINE
  5
449B
100
AcDbEntity
  8
BORDER
100
AcDbPolyline
 90
        2
 70
     0
 43
0.012303
 10
20.105643
 20
1.324147
 10
20.105643
 20
1.693241
  0
TEXT
  5
449C
100
AcDbEntity
  8
BORDER
100
AcDbText
 10
20.174162
 20
1.57021
 30
0.0
 40
0.061516
  1
PART NO.
 41
1.25
  7
SIM1
100
AcDbText
  0
TEXT
  5
449D
100
AcDbEntity
  8
BORDER
100
AcDbText
 10
18.793307
 20
1.57021
 30
0.0
 40
0.061516
  1
FILENAME
 41
1.25
  7
SIM1
100
AcDbText
  0
TEXT
  5
449E
100
AcDbEntity
  8
BORDER
100
AcDbText
 10
21.130906
 20
1.201115
 30
0.0
 40
0.061516
  1
REV.
 41
1.25
  7
SIM1
100
AcDbText
  0
TEXT
  5
449F
100
AcDbEntity
  8
BORDER
100
AcDbText
 10
19.03937
 20
1.201115
 30
0.0
 40
0.061516
  1
DWG. NO.
 41
1.25
  7
SIM1
100
AcDbText
  0
LWPOLYLINE
  5
44A0
100
AcDbEntity
  8
BORDER
100
AcDbPolyline
 90
        2
 70
     0
 43
0.012303
 10
21.007874
 20
1.324147
 10
21.007874
 20
0.955052
  0
LWPOLYLINE
  5
44A1
100
AcDbEntity
  8
BORDER
100
AcDbPolyline
 90
        2
 70
     0
 43
0.012303
 10
18.99836
 20
0.955052
 10
18.99836
 20
1.324147
  0
LWPOLYLINE
  5
44A2
100
AcDbEntity
  8
BORDER
100
AcDbPolyline
 90
        2
 70
     0
 43
0.012303
 10
18.99836
 20
0.955052
 10
21.5
 20
0.955052
  0
TEXT
  5
44A3
100
AcDbEntity
  8
BORDER
100
AcDbText
 10
18.769705
 20
1.200221
 30
0.0
 40
0.061516
  1
SIZE
  7
SIM1
100
AcDbText
  0
TEXT
  5
44A4
100
AcDbEntity
  8
BORDER
100
AcDbText
 10
19.080381
 20
0.817434
 30
0.0
 40
0.061516
  1
SCALE
 41
1.25
  7
SIM1
100
AcDbText
  0
TEXT
  5
44A5
100
AcDbEntity
  8
BORDER
100
AcDbText
 10
20.925853
 20
0.817434
 30
0.0
 40
0.061516
  1
OF
 41
1.25
  7
SIM1
100
AcDbText
  0
TEXT
  5
44A6
100
AcDbEntity
  8
BORDER
100
AcDbText
 10
20.146654
 20
0.817434
 30
0.0
 40
0.061516
  1
SHEET
 41
1.25
  7
SIM1
100
AcDbText
  0
TEXT
  5
44A7
100
AcDbEntity
  8
BORDER
100
AcDbText
 10
18.793307
 20
2.185367
 30
0.0
 40
0.061516
  1
TITLE:
 41
1.25
  7
SIM1
100
AcDbText
  0
LWPOLYLINE
  5
44A8
100
AcDbEntity
  8
BORDER
100
AcDbPolyline
 90
        2
 70
     0
 43
0.012303
 10
18.711286
 20
1.324147
 10
21.5
 20
1.324147
  0
LWPOLYLINE
  5
44A9
100
AcDbEntity
  8
BORDER
100
AcDbPolyline
 90
        2
 70
     0
 43
0.012303
 10
18.99836
 20
0.75
 10
18.99836
 20
0.955052
  0
LWPOLYLINE
  5
44AA
100
AcDbEntity
  8
BORDER
100
AcDbPolyline
 90
        2
 70
     0
 43
0.012303
 10
20.064633
 20
0.75
 10
20.064633
 20
0.955052
  0
LWPOLYLINE
  5
44AB
100
AcDbEntity
  8
BORDER
100
AcDbPolyline
 90
        2
 70
     0
 43
0.024606
 10
18.711286
 20
1.693241
 10
21.5
 20
1.693241
  0
LWPOLYLINE
  5
44AC
100
AcDbEntity
  8
BORDER
100
AcDbPolyline
 90
        2
 70
     0
 43
0.024606
 10
18.711286
 20
2.308399
 10
21.5
 20
2.308399
  0
LWPOLYLINE
  5
44AD
100
AcDbEntity
  8
BORDER
100
AcDbPolyline
 90
        2
 70
     0
 43
0.024606
 10
18.711286
 20
0.75
 10
18.711286
 20
3.005525
  0
TEXT
  5
44AE
100
AcDbEntity
  8
BORDER
100
AcDbText
 10
19.88053
 20
2.524792
 30
0.0
 40
0.075972
  1
KNOXVILLE, TN. USA
  7
SIM1
 72
     1
 11
20.462982
 21
2.524792
 31
0.0
100
AcDbText
  0
TEXT
  5
44AF
100
AcDbEntity
  8
BORDER
100
AcDbText
 10
19.569552
 20
2.652425
 30
0.0
 40
0.13675
  1
CONTROL TECHNOLOGY INC.
 41
0.6
  7
COM2
100
AcDbText
  0
LWPOLYLINE
  5
44B0
100
AcDbEntity
  8
BORDER
100
AcDbPolyline
 90
        5
 70
     0
 43
0.024606
 10
21.5
 20
0.75
 10
21.5
 20
3.005555
 10
15.25
 20
3.005555
 10
15.25
 20
0.75
 10
21.5
 20
0.75
  0
TEXT
  5
44B1
100
AcDbEntity
  8
BORDER
100
AcDbText
 10
18.81063
 20
0.892743
 30
0.0
 40
0.1804
  1
C
 41
0.8
  7
SIM1
 72
     1
 11
18.862172
 21
0.892743
 31
0.0
100
AcDbText
  0
TEXT
  5
44B2
100
AcDbEntity
  8
BORDER
100
AcDbText
 10
18.81063
 20
0.894891
 30
0.0
 40
0.1804
  1
C
 41
0.8
  7
SIM1
 72
     1
 11
18.862172
 21
0.894891
 31
0.0
100
AcDbText
  0
TEXT
  5
44B3
100
AcDbEntity
  8
BORDER
100
AcDbText
 10
18.809198
 20
0.894891
 30
0.0
 40
0.1804
  1
C
 41
0.8
  7
SIM1
 72
     1
 11
18.860741
 21
0.894891
 31
0.0
100
AcDbText
  0
LWPOLYLINE
  5
44B4
100
AcDbEntity
  8
BORDER
100
AcDbPolyline
 90
        2
 70
     0
 10
21.514936
 20
8.500774
 40
0.0
 41
0.2
 10
21.714936
 20
8.500774
 40
0.2
 41
0.2
  0
LWPOLYLINE
  5
44B5
100
AcDbEntity
  8
BORDER
100
AcDbPolyline
 90
        2
 70
     0
 43
0.015
 10
21.561064
 20
8.5
 10
21.9
 20
8.5
  0
LWPOLYLINE
  5
44B6
100
AcDbEntity
  8
BORDER
100
AcDbPolyline
 90
        2
 70
     0
 43
0.015
 10
11.00177
 20
0.350797
 10
11.00177
 20
0.689733
  0
LWPOLYLINE
  5
44B7
100
AcDbEntity
  8
BORDER
100
AcDbPolyline
 90
        2
 70
     0
 43
0.015
 10
11.001054
 20
16.31135
 10
11.001054
 20
16.650286
  0
LWPOLYLINE
  5
44B8
100
AcDbEntity
  8
BORDER
100
AcDbPolyline
 90
        2
 70
     0
 43
0.015
 10
0.1
 20
8.5
 10
0.442418
 20
8.5
  0
LINE
  5
44B9
100
AcDbEntity
  8
BORDER
100
AcDbLine
 10
15.25
 20
15.593832
 30
0.0
 11
15.25
 21
15.085359
 31
0.0
  0
LINE
  5
44BA
100
AcDbEntity
  8
BORDER
100
AcDbLine
 10
15.594488
 20
15.593832
 30
0.0
 11
15.594488
 21
15.085359
 31
0.0
  0
LINE
  5
44BB
100
AcDbEntity
  8
BORDER
100
AcDbLine
 10
16.343689
 20
15.593832
 30
0.0
 11
16.343689
 21
15.085359
 31
0.0
  0
LINE
  5
44BC
100
AcDbEntity
  8
BORDER
100
AcDbLine
 10
19.651467
 20
15.593832
 30
0.0
 11
19.651467
 21
15.085359
 31
0.0
  0
LINE
  5
44BD
100
AcDbEntity
  8
BORDER
100
AcDbLine
 10
20.59917
 20
15.593832
 30
0.0
 11
20.59917
 21
15.085359
 31
0.0
  0
LWPOLYLINE
  5
44BE
100
AcDbEntity
  8
BORDER
100
AcDbPolyline
 90
       15
 70
     0
 43
0.011
 10
19.451685
 20
2.847332
 10
18.918456
 20
2.847332
 42
0.414214
 10
18.853076
 20
2.781952
 10
18.853076
 20
2.52552
 42
0.414214
 10
18.918456
 20
2.46014
 10
19.14929
 20
2.46014
 10
19.14929
 20
2.562186
 10
18.953369
 20
2.562186
 10
18.953369
 20
2.738872
 10
19.196428
 20
2.738872
 10
19.196428
 20
2.46014
 10
19.296721
 20
2.46014
 10
19.296721
 20
2.740621
 10
19.446181
 20
2.740621
 10
19.446181
 20
2.847332
  0
LWPOLYLINE
  5
44BF
100
AcDbEntity
  8
BORDER
100
AcDbPolyline
 90
        5
 70
     0
 43
0.011
 10
19.343742
 20
2.454647
 10
19.343742
 20
2.696375
 10
19.445785
 20
2.696375
 10
19.445785
 20
2.46014
 10
19.343742
 20
2.46014
  0
LINE
  5
44C0
100
AcDbEntity
  8
BORDER
100
AcDbLine
 10
19.451685
 20
2.841155
 30
0.0
 11
19.451685
 21
2.853018
 31
0.0
  0
ENDBLK
  5
44C2
100
AcDbEntity
  8
0
100
AcDbBlockEnd
  0
BLOCK
  5
5967
100
AcDbEntity
  8
0
100
AcDbBlockBegin
  2
A$C3A441B30
 70
     0
 10
0.0
 20
0.0
 30
0.0
  3
A$C3A441B30
  1

  0
LINE
  5
5810
100
AcDbEntity
  8
0
100
AcDbLine
 10
0.623467
 20
3.409105
 30
0.0
 11
0.528516
 21
3.313859
 31
0.0
  0
LINE
  5
5811
100
AcDbEntity
  8
0
100
AcDbLine
 10
0.644713
 20
3.387924
 30
0.0
 11
0.549762
 21
3.292678
 31
0.0
  0
LINE
  5
5812
100
AcDbEntity
  8
0
100
AcDbLine
 10
0.229766
 20
3.409105
 30
0.0
 11
0.134815
 21
3.313859
 31
0.0
  0
LINE
  5
5813
100
AcDbEntity
  8
0
100
AcDbLine
 10
0.251012
 20
3.387924
 30
0.0
 11
0.156061
 21
3.292678
 31
0.0
  0
LINE
  5
5814
100
AcDbEntity
  8
0
  6
CONTINUOUS
 62
     7
100
AcDbLine
 10
0.38663
 20
3.295773
 30
0.0
 11
0.38663
 21
3.409947
 31
0.0
  0
LINE
  5
5815
100
AcDbEntity
  8
0
  6
CONTINUOUS
 62
     7
100
AcDbLine
 10
0.29841
 20
3.409947
 30
0.0
 11
0.29841
 21
3.295773
 31
0.0
  0
LINE
  5
5816
100
AcDbEntity
  8
0
  6
CONTINUOUS
 62
     7
100
AcDbLine
 10
0.78033
 20
3.295773
 30
0.0
 11
0.78033
 21
3.409947
 31
0.0
  0
LINE
  5
5817
100
AcDbEntity
  8
0
  6
CONTINUOUS
 62
     7
100
AcDbLine
 10
0.692111
 20
3.409947
 30
0.0
 11
0.692111
 21
3.295773
 31
0.0
  0
CIRCLE
  5
5818
100
AcDbEntity
  8
0
  6
CONTINUOUS
 62
     7
100
AcDbCircle
 10
0.586614
 20
3.350892
 30
0.0
 40
0.068898
  0
CIRCLE
  5
5819
100
AcDbEntity
  8
0
  6
CONTINUOUS
 62
     7
100
AcDbCircle
 10
0.192913
 20
3.350892
 30
0.0
 40
0.068898
  0
LINE
  5
581A
100
AcDbEntity
  8
0
  6
CONTINUOUS
 62
     7
100
AcDbLine
 10
0.787402
 20
0.446561
 30
0.0
 11
0.787402
 21
3.655222
 31
0.0
  0
LINE
  5
581B
100
AcDbEntity
  8
0
  6
CONTINUOUS
 62
     7
100
AcDbLine
 10
0.0
 20
0.446561
 30
0.0
 11
0.0
 21
3.655222
 31
0.0
  0
LINE
  5
581C
100
AcDbEntity
  8
0
  6
CONTINUOUS
 62
     7
100
AcDbLine
 10
0.393701
 20
0.446561
 30
0.0
 11
0.393701
 21
3.655222
 31
0.0
  0
LINE
  5
581D
100
AcDbEntity
  8
0
  6
CONTINUOUS
 62
     7
100
AcDbLine
 10
0.291339
 20
0.446561
 30
0.0
 11
0.291339
 21
3.655222
 31
0.0
  0
LINE
  5
581E
100
AcDbEntity
  8
0
  6
CONTINUOUS
 62
     7
100
AcDbLine
 10
0.07874
 20
3.655222
 30
0.0
 11
0.07874
 21
0.446561
 31
0.0
  0
LINE
  5
581F
100
AcDbEntity
  8
0
  6
CONTINUOUS
 62
     7
100
AcDbLine
 10
0.472441
 20
3.655222
 30
0.0
 11
0.472441
 21
0.446561
 31
0.0
  0
LINE
  5
5820
100
AcDbEntity
  8
0
  6
CONTINUOUS
 62
     7
100
AcDbLine
 10
0.685039
 20
3.655222
 30
0.0
 11
0.685039
 21
0.446561
 31
0.0
  0
LINE
  5
5821
100
AcDbEntity
  8
0
100
AcDbLine
 10
0.623467
 20
1.209105
 30
0.0
 11
0.528516
 21
1.113859
 31
0.0
  0
LINE
  5
5822
100
AcDbEntity
  8
0
100
AcDbLine
 10
0.229766
 20
1.209105
 30
0.0
 11
0.134815
 21
1.113859
 31
0.0
  0
LINE
  5
5823
100
AcDbEntity
  8
0
  6
CONTINUOUS
 62
     7
100
AcDbLine
 10
0.38663
 20
1.095773
 30
0.0
 11
0.38663
 21
1.209947
 31
0.0
  0
LINE
  5
5824
100
AcDbEntity
  8
0
  6
CONTINUOUS
 62
     7
100
AcDbLine
 10
0.29841
 20
1.209947
 30
0.0
 11
0.29841
 21
1.095773
 31
0.0
  0
LINE
  5
5825
100
AcDbEntity
  8
0
  6
CONTINUOUS
 62
     7
100
AcDbLine
 10
0.78033
 20
1.095773
 30
0.0
 11
0.78033
 21
1.209947
 31
0.0
  0
LINE
  5
5826
100
AcDbEntity
  8
0
  6
CONTINUOUS
 62
     7
100
AcDbLine
 10
0.692111
 20
1.209947
 30
0.0
 11
0.692111
 21
1.095773
 31
0.0
  0
CIRCLE
  5
5827
100
AcDbEntity
  8
0
  6
CONTINUOUS
 62
     7
100
AcDbCircle
 10
0.586614
 20
1.150892
 30
0.0
 40
0.068898
  0
CIRCLE
  5
5828
100
AcDbEntity
  8
0
  6
CONTINUOUS
 62
     7
100
AcDbCircle
 10
0.192913
 20
1.150892
 30
0.0
 40
0.068898
  0
TEXT
  5
5829
100
AcDbEntity
  8
0
100
AcDbText
 10
0.092834
 20
0.6305
 30
0.0
 40
0.04
  1
A16
  7
STYLE1
100
AcDbText
  0
TEXT
  5
582A
100
AcDbEntity
  8
0
100
AcDbText
 10
0.092834
 20
0.8305
 30
0.0
 40
0.04
  1
A15
  7
STYLE1
100
AcDbText
  0
TEXT
  5
582B
100
AcDbEntity
  8
0
100
AcDbText
 10
0.092834
 20
1.0305
 30
0.0
 40
0.04
  1
A14
  7
STYLE1
100
AcDbText
  0
LINE
  5
582C
100
AcDbEntity
  8
0
  6
CONTINUOUS
 62
     7
100
AcDbLine
 10
0.787402
 20
0.348136
 30
0.0
 11
0.0
 21
0.348136
 31
0.0
  0
LINE
  5
582D
100
AcDbEntity
  8
0
  6
CONTINUOUS
 62
     7
100
AcDbLine
 10
0.07874
 20
0.446561
 30
0.0
 11
0.291339
 21
0.446561
 31
0.0
  0
LINE
  5
582E
100
AcDbEntity
  8
0
  6
CONTINUOUS
 62
     7
100
AcDbLine
 10
0.269685
 20
0.003648
 30
0.0
 11
0.07874
 21
0.003648
 31
0.0
  0
LINE
  5
582F
100
AcDbEntity
  8
0
  6
CONTINUOUS
 62
     7
100
AcDbLine
 10
0.0
 20
0.348136
 30
0.0
 11
0.0
 21
0.082388
 31
0.0
  0
ARC
  5
5830
100
AcDbEntity
  8
0
  6
CONTINUOUS
 62
     7
100
AcDbCircle
 10
0.07874
 20
0.082388
 30
0.0
 40
0.07874
100
AcDbArc
 50
180.0
 51
270.0
  0
LINE
  5
5831
100
AcDbEntity
  8
0
  6
CONTINUOUS
 62
     7
100
AcDbLine
 10
0.0
 20
0.446561
 30
0.0
 11
0.0
 21
0.348136
 31
0.0
  0
LINE
  5
5832
100
AcDbEntity
  8
0
  6
CONTINUOUS
 62
     7
100
AcDbLine
 10
0.0
 20
0.446561
 30
0.0
 11
0.07874
 21
0.446561
 31
0.0
  0
LINE
  5
5833
100
AcDbEntity
  8
0
  6
CONTINUOUS
 62
     7
100
AcDbLine
 10
0.420429
 20
0.168042
 30
0.0
 11
0.39571
 21
0.143065
 31
0.0
  0
LINE
  5
5834
100
AcDbEntity
  8
0
  6
CONTINUOUS
 62
     7
100
AcDbLine
 10
0.447578
 20
0.141173
 30
0.0
 11
0.420429
 21
0.168042
 31
0.0
  0
SPLINE
  5
5835
100
AcDbEntity
  8
0
  6
CONTINUOUS
 62
     7
100
AcDbSpline
210
0.703420699012156
220
0.7107737475464679
230
0.0
 70
    24
 71
     3
 72
    14
 73
    10
 74
     0
 42
0.0000001
 43
0.0000001
 40
0.0
 40
0.0
 40
0.0
 40
0.0
 40
0.25
 40
0.25
 40
0.5
 40
0.5
 40
0.75
 40
0.75
 40
1.0
 40
1.0
 40
1.0
 40
1.0
 10
0.298634586375762
 20
0.176797313796591
 30
0.0
 10
0.298634586375762
 20
0.176797313796591
 30
0.0
 10
0.2993888342040911
 20
0.1760508687619176
 30
0.0
 10
0.3022537451508498
 20
0.1732155956982577
 30
0.0
 10
0.3043624804514273
 20
0.1711286755435886
 30
0.0
 10
0.3095597338092393
 20
0.1659851884599472
 30
0.0
 10
0.3126805582912038
 20
0.1628966493204889
 30
0.0
 10
0.3193669813042224
 20
0.1562793982389117
 30
0.0
 10
0.3229959225130425
 20
0.1526879989074175
 30
0.0
 10
0.3265915455970187
 20
0.1491295730203532
 30
0.0
  0
LINE
  5
5836
100
AcDbEntity
  8
0
  6
CONTINUOUS
 62
     7
100
AcDbLine
 10
0.357759
 20
0.180623
 30
0.0
 11
0.39571
 21
0.143065
 31
0.0
  0
ARC
  5
5837
100
AcDbEntity
  8
0
  6
CONTINUOUS
 62
     7
100
AcDbCircle
 10
0.393701
 20
0.113884
 30
0.0
 40
0.113999
100
AcDbArc
 50
326.503901
 51
124.091908
  0
ARC
  5
5838
100
AcDbEntity
  8
0
  6
CONTINUOUS
 62
     7
100
AcDbCircle
 10
0.393701
 20
0.113884
 30
0.0
 40
0.113999
100
AcDbArc
 50
146.503901
 51
304.091908
  0
LINE
  5
5839
100
AcDbEntity
  8
0
  6
CONTINUOUS
 62
     7
100
AcDbLine
 10
0.517717
 20
0.251679
 30
0.0
 11
0.517717
 21
0.003648
 31
0.0
  0
LINE
  5
583A
100
AcDbEntity
  8
0
  6
CONTINUOUS
 62
     7
100
AcDbLine
 10
0.269685
 20
0.251679
 30
0.0
 11
0.269685
 21
0.003648
 31
0.0
  0
LINE
  5
583B
100
AcDbEntity
  8
0
  6
CONTINUOUS
 62
     7
100
AcDbLine
 10
0.787402
 20
0.348136
 30
0.0
 11
0.787402
 21
0.082388
 31
0.0
  0
ARC
  5
583C
100
AcDbEntity
  8
0
  6
CONTINUOUS
 62
     7
100
AcDbCircle
 10
0.708661
 20
0.082388
 30
0.0
 40
0.07874
100
AcDbArc
 50
270.0
 51
0.0
  0
SPLINE
  5
583D
100
AcDbEntity
  8
0
  6
CONTINUOUS
 62
     7
100
AcDbSpline
210
0.7034206990121558
220
0.7107737475464681
230
0.0
 70
    24
 71
     3
 72
    14
 73
    10
 74
     0
 42
0.0000001
 43
0.0000001
 40
0.0
 40
0.0
 40
0.0
 40
0.0
 40
0.25
 40
0.25
 40
0.5
 40
0.5
 40
0.75
 40
0.75
 40
1.0
 40
1.0
 40
1.0
 40
1.0
 10
0.4296426332888111
 20
0.0471445624760705
 30
0.0
 10
0.4332338066528632
 20
0.0435905402759875
 30
0.0
 10
0.436872855816711
 20
0.0399891375575994
 30
0.0
 10
0.4435592320515163
 20
0.0333719327703079
 30
0.0
 10
0.4466899584872444
 20
0.0302735941141084
 30
0.0
 10
0.4518805778051878
 20
0.0251366724403166
 30
0.0
 10
0.4540006004139361
 20
0.0230385817461745
 30
0.0
 10
0.4568492111729725
 20
0.0202194402426343
 30
0.0
 10
0.457599592510066
 20
0.0194768216998345
 30
0.0
 10
0.457599592510066
 20
0.0194768216998345
 30
0.0
  0
LINE
  5
583E
100
AcDbEntity
  8
0
  6
CONTINUOUS
 62
     7
100
AcDbLine
 10
0.422859
 20
0.116196
 30
0.0
 11
0.46081
 21
0.078638
 31
0.0
  0
LINE
  5
583F
100
AcDbEntity
  8
0
  6
CONTINUOUS
 62
     7
100
AcDbLine
 10
0.422859
 20
0.116196
 30
0.0
 11
0.447578
 21
0.141173
 31
0.0
  0
LINE
  5
5840
100
AcDbEntity
  8
0
  6
CONTINUOUS
 62
     7
100
AcDbLine
 10
0.422747
 20
0.003648
 30
0.0
 11
0.517717
 21
0.003648
 31
0.0
  0
LINE
  5
5841
100
AcDbEntity
  8
0
  6
CONTINUOUS
 62
     7
100
AcDbLine
 10
0.269685
 20
0.003648
 30
0.0
 11
0.364654
 21
0.003648
 31
0.0
  0
LINE
  5
5842
100
AcDbEntity
  8
0
  6
CONTINUOUS
 62
     7
100
AcDbLine
 10
0.339823
 20
0.086594
 30
0.0
 11
0.366973
 21
0.059725
 31
0.0
  0
LINE
  5
5843
100
AcDbEntity
  8
0
  6
CONTINUOUS
 62
     7
100
AcDbLine
 10
0.429643
 20
0.047145
 30
0.0
 11
0.391692
 21
0.084703
 31
0.0
  0
LINE
  5
5844
100
AcDbEntity
  8
0
  6
CONTINUOUS
 62
     7
100
AcDbLine
 10
0.364542
 20
0.111571
 30
0.0
 11
0.339823
 21
0.086594
 31
0.0
  0
LINE
  5
5845
100
AcDbEntity
  8
0
  6
CONTINUOUS
 62
     7
100
AcDbLine
 10
0.366973
 20
0.059725
 30
0.0
 11
0.391692
 21
0.084703
 31
0.0
  0
LINE
  5
5846
100
AcDbEntity
  8
0
  6
CONTINUOUS
 62
     7
100
AcDbLine
 10
0.364542
 20
0.111571
 30
0.0
 11
0.326592
 21
0.14913
 31
0.0
  0
LINE
  5
5847
100
AcDbEntity
  8
0
  6
CONTINUOUS
 62
     7
100
AcDbLine
 10
0.708661
 20
0.003648
 30
0.0
 11
0.517717
 21
0.003648
 31
0.0
  0
SPLINE
  5
5848
100
AcDbEntity
  8
0
  6
CONTINUOUS
 62
     7
100
AcDbSpline
210
0.7034206990121558
220
0.7107737475464681
230
0.0
 70
    24
 71
     3
 72
    14
 73
    10
 74
     0
 42
0.0000001
 43
0.0000001
 40
0.0
 40
0.0
 40
0.0
 40
0.0
 40
0.25
 40
0.25
 40
0.5000000000000001
 40
0.5000000000000001
 40
0.75
 40
0.75
 40
1.0
 40
1.0
 40
1.0
 40
1.0
 10
0.4887670005467069
 20
0.050970031158446
 30
0.0
 10
0.4887670005467069
 20
0.050970031158446
 30
0.0
 10
0.4880311358600374
 20
0.051698283227493
 30
0.0
 10
0.4851565486849001
 20
0.0545431324176686
 30
0.0
 10
0.4830583545366025
 20
0.0566196204696734
 30
0.0
 10
0.4778473931879202
 20
0.0617766737332026
 30
0.0
 10
0.474730746089282
 20
0.0648610787049204
 30
0.0
 10
0.4680377491011019
 20
0.0714848357530151
 30
0.0
 10
0.4644040644795329
 20
0.0750809294260257
 30
0.0
 10
0.4608100413254519
 20
0.078637771934682
 30
0.0
  0
ARC
  5
5849
100
AcDbEntity
  8
0
  6
CONTINUOUS
 62
     7
100
AcDbCircle
 10
0.393701
 20
0.113884
 30
0.0
 40
0.113999
100
AcDbArc
 50
304.091908
 51
326.503901
  0
LINE
  5
584A
100
AcDbEntity
  8
0
  6
CONTINUOUS
 62
     7
100
AcDbLine
 10
0.78033
 20
0.809947
 30
0.0
 11
0.692111
 21
0.809947
 31
0.0
  0
LINE
  5
584B
100
AcDbEntity
  8
0
  6
CONTINUOUS
 62
     7
100
AcDbLine
 10
0.692111
 20
0.695773
 30
0.0
 11
0.78033
 21
0.695773
 31
0.0
  0
LINE
  5
584C
100
AcDbEntity
  8
0
  6
CONTINUOUS
 62
     7
100
AcDbLine
 10
0.78033
 20
0.609947
 30
0.0
 11
0.692111
 21
0.609947
 31
0.0
  0
LINE
  5
584D
100
AcDbEntity
  8
0
  6
CONTINUOUS
 62
     7
100
AcDbLine
 10
0.685039
 20
0.446561
 30
0.0
 11
0.787402
 21
0.446561
 31
0.0
  0
LINE
  5
584E
100
AcDbEntity
  8
0
  6
CONTINUOUS
 62
     7
100
AcDbLine
 10
0.692111
 20
0.495773
 30
0.0
 11
0.78033
 21
0.495773
 31
0.0
  0
LINE
  5
584F
100
AcDbEntity
  8
0
  6
CONTINUOUS
 62
     7
100
AcDbLine
 10
0.692111
 20
1.095773
 30
0.0
 11
0.78033
 21
1.095773
 31
0.0
  0
LINE
  5
5850
100
AcDbEntity
  8
0
  6
CONTINUOUS
 62
     7
100
AcDbLine
 10
0.78033
 20
1.009947
 30
0.0
 11
0.692111
 21
1.009947
 31
0.0
  0
LINE
  5
5851
100
AcDbEntity
  8
0
  6
CONTINUOUS
 62
     7
100
AcDbLine
 10
0.692111
 20
0.895773
 30
0.0
 11
0.78033
 21
0.895773
 31
0.0
  0
TEXT
  5
5852
100
AcDbEntity
  8
0
100
AcDbText
 10
0.486535
 20
0.6305
 30
0.0
 40
0.04
  1
B16
  7
STYLE1
100
AcDbText
  0
LINE
  5
5853
100
AcDbEntity
  8
0
  6
CONTINUOUS
 62
     7
100
AcDbLine
 10
0.517717
 20
0.251679
 30
0.0
 11
0.269685
 21
0.251679
 31
0.0
  0
LINE
  5
5854
100
AcDbEntity
  8
0
  6
CONTINUOUS
 62
     7
100
AcDbLine
 10
0.393701
 20
0.446561
 30
0.0
 11
0.472441
 21
0.446561
 31
0.0
  0
LINE
  5
5855
100
AcDbEntity
  8
0
  6
CONTINUOUS
 62
     7
100
AcDbLine
 10
0.570866
 20
0.415065
 30
0.0
 11
0.216535
 21
0.415065
 31
0.0
  0
LINE
  5
5856
100
AcDbEntity
  8
0
  6
CONTINUOUS
 62
     7
100
AcDbLine
 10
0.216535
 20
0.379632
 30
0.0
 11
0.570866
 21
0.379632
 31
0.0
  0
LINE
  5
5857
100
AcDbEntity
  8
0
  6
CONTINUOUS
 62
     7
100
AcDbLine
 10
0.216535
 20
0.415065
 30
0.0
 11
0.216535
 21
0.379632
 31
0.0
  0
SPLINE
  5
5858
100
AcDbEntity
  8
0
  6
CONTINUOUS
 62
     7
100
AcDbSpline
210
0.7034206990121558
220
0.7107737475464681
230
0.0
 70
    24
 71
     3
 72
    14
 73
    10
 74
     0
 42
0.0000001
 43
0.0000001
 40
0.0
 40
0.0
 40
0.0
 40
0.0
 40
0.25
 40
0.25
 40
0.5
 40
0.5
 40
0.75
 40
0.75
 40
1.0
 40
1.0
 40
1.0
 40
1.0
 10
0.3577589536336596
 20
0.1806227824789648
 30
0.0
 10
0.3541690791217587
 20
0.1841755192636913
 30
0.0
 10
0.3505333311200047
 20
0.1877736549709468
 30
0.0
 10
0.3438493269135758
 20
0.1943885122688105
 30
0.0
 10
0.3407201222447931
 20
0.1974853449009437
 30
0.0
 10
0.3355305545047642
 20
0.202621225875534
 30
0.0
 10
0.333408063344546
 20
0.2047217595836539
 30
0.0
 10
0.3305428867467715
 20
0.2075572955501368
 30
0.0
 10
0.3298019944124046
 20
0.2082905232552008
 30
0.0
 10
0.3298019944124046
 20
0.2082905232552008
 30
0.0
  0
ARC
  5
5859
100
AcDbEntity
  8
0
  6
CONTINUOUS
 62
     7
100
AcDbCircle
 10
0.393701
 20
0.113884
 30
0.0
 40
0.113999
100
AcDbArc
 50
124.091908
 51
146.503901
  0
LINE
  5
585A
100
AcDbEntity
  8
0
100
AcDbLine
 10
0.229766
 20
0.609105
 30
0.0
 11
0.134815
 21
0.513859
 31
0.0
  0
LINE
  5
585B
100
AcDbEntity
  8
0
100
AcDbLine
 10
0.251012
 20
0.587924
 30
0.0
 11
0.156061
 21
0.492678
 31
0.0
  0
CIRCLE
  5
585C
100
AcDbEntity
  8
0
  6
CONTINUOUS
 62
     7
100
AcDbCircle
 10
0.192913
 20
0.550892
 30
0.0
 40
0.068898
  0
LINE
  5
585D
100
AcDbEntity
  8
0
  6
CONTINUOUS
 62
     7
100
AcDbLine
 10
0.291339
 20
0.446561
 30
0.0
 11
0.393701
 21
0.446561
 31
0.0
  0
LINE
  5
585E
100
AcDbEntity
  8
0
  6
CONTINUOUS
 62
     7
100
AcDbLine
 10
0.38663
 20
0.609947
 30
0.0
 11
0.29841
 21
0.609947
 31
0.0
  0
LINE
  5
585F
100
AcDbEntity
  8
0
  6
CONTINUOUS
 62
     7
100
AcDbLine
 10
0.29841
 20
0.495773
 30
0.0
 11
0.38663
 21
0.495773
 31
0.0
  0
LINE
  5
5860
100
AcDbEntity
  8
0
  6
CONTINUOUS
 62
     7
100
AcDbLine
 10
0.38663
 20
0.495773
 30
0.0
 11
0.38663
 21
0.609947
 31
0.0
  0
LINE
  5
5861
100
AcDbEntity
  8
0
  6
CONTINUOUS
 62
     7
100
AcDbLine
 10
0.29841
 20
0.609947
 30
0.0
 11
0.29841
 21
0.495773
 31
0.0
  0
LINE
  5
5862
100
AcDbEntity
  8
0
  6
CONTINUOUS
 62
     7
100
AcDbLine
 10
0.570866
 20
0.379632
 30
0.0
 11
0.570866
 21
0.415065
 31
0.0
  0
LINE
  5
5863
100
AcDbEntity
  8
0
100
AcDbLine
 10
0.623467
 20
0.609105
 30
0.0
 11
0.528516
 21
0.513859
 31
0.0
  0
LINE
  5
5864
100
AcDbEntity
  8
0
100
AcDbLine
 10
0.644713
 20
0.587924
 30
0.0
 11
0.549762
 21
0.492678
 31
0.0
  0
CIRCLE
  5
5865
100
AcDbEntity
  8
0
  6
CONTINUOUS
 62
     7
100
AcDbCircle
 10
0.586614
 20
0.550892
 30
0.0
 40
0.068898
  0
LINE
  5
5866
100
AcDbEntity
  8
0
  6
CONTINUOUS
 62
     7
100
AcDbLine
 10
0.472441
 20
0.446561
 30
0.0
 11
0.685039
 21
0.446561
 31
0.0
  0
LINE
  5
5867
100
AcDbEntity
  8
0
  6
CONTINUOUS
 62
     7
100
AcDbLine
 10
0.692111
 20
0.609947
 30
0.0
 11
0.692111
 21
0.495773
 31
0.0
  0
LINE
  5
5868
100
AcDbEntity
  8
0
100
AcDbLine
 10
0.229766
 20
1.009105
 30
0.0
 11
0.134815
 21
0.913859
 31
0.0
  0
LINE
  5
5869
100
AcDbEntity
  8
0
100
AcDbLine
 10
0.251012
 20
0.987924
 30
0.0
 11
0.156061
 21
0.892678
 31
0.0
  0
LINE
  5
586A
100
AcDbEntity
  8
0
  6
CONTINUOUS
 62
     7
100
AcDbLine
 10
0.38663
 20
0.895773
 30
0.0
 11
0.38663
 21
1.009947
 31
0.0
  0
LINE
  5
586B
100
AcDbEntity
  8
0
  6
CONTINUOUS
 62
     7
100
AcDbLine
 10
0.29841
 20
1.009947
 30
0.0
 11
0.29841
 21
0.895773
 31
0.0
  0
CIRCLE
  5
586C
100
AcDbEntity
  8
0
  6
CONTINUOUS
 62
     7
100
AcDbCircle
 10
0.192913
 20
0.950892
 30
0.0
 40
0.068898
  0
LINE
  5
586D
100
AcDbEntity
  8
0
100
AcDbLine
 10
0.229766
 20
0.809105
 30
0.0
 11
0.134815
 21
0.713859
 31
0.0
  0
LINE
  5
586E
100
AcDbEntity
  8
0
100
AcDbLine
 10
0.251012
 20
0.787924
 30
0.0
 11
0.156061
 21
0.692678
 31
0.0
  0
CIRCLE
  5
586F
100
AcDbEntity
  8
0
  6
CONTINUOUS
 62
     7
100
AcDbCircle
 10
0.192913
 20
0.750892
 30
0.0
 40
0.068898
  0
LINE
  5
5870
100
AcDbEntity
  8
0
  6
CONTINUOUS
 62
     7
100
AcDbLine
 10
0.38663
 20
0.809947
 30
0.0
 11
0.29841
 21
0.809947
 31
0.0
  0
LINE
  5
5871
100
AcDbEntity
  8
0
  6
CONTINUOUS
 62
     7
100
AcDbLine
 10
0.29841
 20
0.695773
 30
0.0
 11
0.38663
 21
0.695773
 31
0.0
  0
LINE
  5
5872
100
AcDbEntity
  8
0
  6
CONTINUOUS
 62
     7
100
AcDbLine
 10
0.38663
 20
0.695773
 30
0.0
 11
0.38663
 21
0.809947
 31
0.0
  0
LINE
  5
5873
100
AcDbEntity
  8
0
  6
CONTINUOUS
 62
     7
100
AcDbLine
 10
0.29841
 20
0.809947
 30
0.0
 11
0.29841
 21
0.695773
 31
0.0
  0
LINE
  5
5874
100
AcDbEntity
  8
0
  6
CONTINUOUS
 62
     7
100
AcDbLine
 10
0.29841
 20
0.895773
 30
0.0
 11
0.38663
 21
0.895773
 31
0.0
  0
LINE
  5
5875
100
AcDbEntity
  8
0
100
AcDbLine
 10
0.251012
 20
1.187924
 30
0.0
 11
0.156061
 21
1.092678
 31
0.0
  0
LINE
  5
5876
100
AcDbEntity
  8
0
  6
CONTINUOUS
 62
     7
100
AcDbLine
 10
0.29841
 20
1.095773
 30
0.0
 11
0.38663
 21
1.095773
 31
0.0
  0
LINE
  5
5877
100
AcDbEntity
  8
0
  6
CONTINUOUS
 62
     7
100
AcDbLine
 10
0.38663
 20
1.009947
 30
0.0
 11
0.29841
 21
1.009947
 31
0.0
  0
LINE
  5
5878
100
AcDbEntity
  8
0
100
AcDbLine
 10
0.623467
 20
1.009105
 30
0.0
 11
0.528516
 21
0.913859
 31
0.0
  0
LINE
  5
5879
100
AcDbEntity
  8
0
100
AcDbLine
 10
0.644713
 20
0.987924
 30
0.0
 11
0.549762
 21
0.892678
 31
0.0
  0
LINE
  5
587A
100
AcDbEntity
  8
0
  6
CONTINUOUS
 62
     7
100
AcDbLine
 10
0.692111
 20
1.009947
 30
0.0
 11
0.692111
 21
0.895773
 31
0.0
  0
CIRCLE
  5
587B
100
AcDbEntity
  8
0
  6
CONTINUOUS
 62
     7
100
AcDbCircle
 10
0.586614
 20
0.950892
 30
0.0
 40
0.068898
  0
LINE
  5
587C
100
AcDbEntity
  8
0
100
AcDbLine
 10
0.623467
 20
0.809105
 30
0.0
 11
0.528516
 21
0.713859
 31
0.0
  0
LINE
  5
587D
100
AcDbEntity
  8
0
100
AcDbLine
 10
0.644713
 20
0.787924
 30
0.0
 11
0.549762
 21
0.692678
 31
0.0
  0
CIRCLE
  5
587E
100
AcDbEntity
  8
0
  6
CONTINUOUS
 62
     7
100
AcDbCircle
 10
0.586614
 20
0.750892
 30
0.0
 40
0.068898
  0
TEXT
  5
587F
100
AcDbEntity
  8
0
100
AcDbText
 10
0.486535
 20
0.8305
 30
0.0
 40
0.04
  1
B15
  7
STYLE1
100
AcDbText
  0
LINE
  5
5880
100
AcDbEntity
  8
0
  6
CONTINUOUS
 62
     7
100
AcDbLine
 10
0.692111
 20
0.809947
 30
0.0
 11
0.692111
 21
0.695773
 31
0.0
  0
LINE
  5
5881
100
AcDbEntity
  8
0
100
AcDbLine
 10
0.644713
 20
1.187924
 30
0.0
 11
0.549762
 21
1.092678
 31
0.0
  0
TEXT
  5
5882
100
AcDbEntity
  8
0
100
AcDbText
 10
0.486535
 20
1.0305
 30
0.0
 40
0.04
  1
B14
  7
STYLE1
100
AcDbText
  0
LINE
  5
5883
100
AcDbEntity
  8
0
  6
CONTINUOUS
 62
     7
100
AcDbLine
 10
0.787402
 20
0.348136
 30
0.0
 11
0.787402
 21
0.446561
 31
0.0
  0
LINE
  5
5884
100
AcDbEntity
  8
0
  6
CONTINUOUS
 62
     7
100
AcDbLine
 10
0.78033
 20
0.495773
 30
0.0
 11
0.78033
 21
0.609947
 31
0.0
  0
LINE
  5
5885
100
AcDbEntity
  8
0
  6
CONTINUOUS
 62
     7
100
AcDbLine
 10
0.78033
 20
0.895773
 30
0.0
 11
0.78033
 21
1.009947
 31
0.0
  0
LINE
  5
5886
100
AcDbEntity
  8
0
  6
CONTINUOUS
 62
     7
100
AcDbLine
 10
0.78033
 20
0.695773
 30
0.0
 11
0.78033
 21
0.809947
 31
0.0
  0
TEXT
  5
5887
100
AcDbEntity
  8
0
100
AcDbText
 10
0.092834
 20
1.2305
 30
0.0
 40
0.04
  1
A13
  7
STYLE1
100
AcDbText
  0
TEXT
  5
5888
100
AcDbEntity
  8
0
100
AcDbText
 10
0.092834
 20
1.4305
 30
0.0
 40
0.04
  1
A12
  7
STYLE1
100
AcDbText
  0
TEXT
  5
5889
100
AcDbEntity
  8
0
100
AcDbText
 10
0.092834
 20
1.6305
 30
0.0
 40
0.04
  1
A11
  7
STYLE1
100
AcDbText
  0
TEXT
  5
588A
100
AcDbEntity
  8
0
100
AcDbText
 10
0.092834
 20
1.8305
 30
0.0
 40
0.04
  1
A10
  7
STYLE1
100
AcDbText
  0
TEXT
  5
588B
100
AcDbEntity
  8
0
100
AcDbText
 10
0.092834
 20
2.0305
 30
0.0
 40
0.04
  1
A9
  7
STYLE1
100
AcDbText
  0
TEXT
  5
588C
100
AcDbEntity
  8
0
100
AcDbText
 10
0.092834
 20
2.2305
 30
0.0
 40
0.04
  1
A8
  7
STYLE1
100
AcDbText
  0
TEXT
  5
588D
100
AcDbEntity
  8
0
100
AcDbText
 10
0.092834
 20
2.4305
 30
0.0
 40
0.04
  1
A7
  7
STYLE1
100
AcDbText
  0
TEXT
  5
588E
100
AcDbEntity
  8
0
100
AcDbText
 10
0.092834
 20
2.6305
 30
0.0
 40
0.04
  1
A6
  7
STYLE1
100
AcDbText
  0
TEXT
  5
588F
100
AcDbEntity
  8
0
100
AcDbText
 10
0.092834
 20
2.8305
 30
0.0
 40
0.04
  1
A5
  7
STYLE1
100
AcDbText
  0
TEXT
  5
5890
100
AcDbEntity
  8
0
100
AcDbText
 10
0.092834
 20
3.0305
 30
0.0
 40
0.04
  1
A4
  7
STYLE1
100
AcDbText
  0
TEXT
  5
5891
100
AcDbEntity
  8
0
100
AcDbText
 10
0.092834
 20
3.2305
 30
0.0
 40
0.04
  1
A3
  7
STYLE1
100
AcDbText
  0
TEXT
  5
5892
100
AcDbEntity
  8
0
100
AcDbText
 10
0.486535
 20
2.2305
 30
0.0
 40
0.04
  1
B8
  7
STYLE1
100
AcDbText
  0
LINE
  5
5893
100
AcDbEntity
  8
0
  6
CONTINUOUS
 62
     7
100
AcDbLine
 10
0.78033
 20
1.209947
 30
0.0
 11
0.692111
 21
1.209947
 31
0.0
  0
LINE
  5
5894
100
AcDbEntity
  8
0
  6
CONTINUOUS
 62
     7
100
AcDbLine
 10
0.78033
 20
1.609947
 30
0.0
 11
0.692111
 21
1.609947
 31
0.0
  0
LINE
  5
5895
100
AcDbEntity
  8
0
  6
CONTINUOUS
 62
     7
100
AcDbLine
 10
0.692111
 20
1.495773
 30
0.0
 11
0.78033
 21
1.495773
 31
0.0
  0
LINE
  5
5896
100
AcDbEntity
  8
0
  6
CONTINUOUS
 62
     7
100
AcDbLine
 10
0.78033
 20
1.409947
 30
0.0
 11
0.692111
 21
1.409947
 31
0.0
  0
LINE
  5
5897
100
AcDbEntity
  8
0
  6
CONTINUOUS
 62
     7
100
AcDbLine
 10
0.692111
 20
1.295773
 30
0.0
 11
0.78033
 21
1.295773
 31
0.0
  0
LINE
  5
5898
100
AcDbEntity
  8
0
  6
CONTINUOUS
 62
     7
100
AcDbLine
 10
0.692111
 20
2.095773
 30
0.0
 11
0.78033
 21
2.095773
 31
0.0
  0
LINE
  5
5899
100
AcDbEntity
  8
0
  6
CONTINUOUS
 62
     7
100
AcDbLine
 10
0.78033
 20
2.009947
 30
0.0
 11
0.692111
 21
2.009947
 31
0.0
  0
LINE
  5
589A
100
AcDbEntity
  8
0
  6
CONTINUOUS
 62
     7
100
AcDbLine
 10
0.692111
 20
1.895773
 30
0.0
 11
0.78033
 21
1.895773
 31
0.0
  0
LINE
  5
589B
100
AcDbEntity
  8
0
  6
CONTINUOUS
 62
     7
100
AcDbLine
 10
0.78033
 20
1.809947
 30
0.0
 11
0.692111
 21
1.809947
 31
0.0
  0
LINE
  5
589C
100
AcDbEntity
  8
0
  6
CONTINUOUS
 62
     7
100
AcDbLine
 10
0.692111
 20
1.695773
 30
0.0
 11
0.78033
 21
1.695773
 31
0.0
  0
LINE
  5
589D
100
AcDbEntity
  8
0
  6
CONTINUOUS
 62
     7
100
AcDbLine
 10
0.78033
 20
2.209947
 30
0.0
 11
0.692111
 21
2.209947
 31
0.0
  0
LINE
  5
589E
100
AcDbEntity
  8
0
100
AcDbLine
 10
0.623467
 20
1.809105
 30
0.0
 11
0.528516
 21
1.713859
 31
0.0
  0
LINE
  5
589F
100
AcDbEntity
  8
0
100
AcDbLine
 10
0.644713
 20
1.787924
 30
0.0
 11
0.549762
 21
1.692678
 31
0.0
  0
LINE
  5
58A0
100
AcDbEntity
  8
0
100
AcDbLine
 10
0.229766
 20
1.809105
 30
0.0
 11
0.134815
 21
1.713859
 31
0.0
  0
LINE
  5
58A1
100
AcDbEntity
  8
0
100
AcDbLine
 10
0.251012
 20
1.787924
 30
0.0
 11
0.156061
 21
1.692678
 31
0.0
  0
LINE
  5
58A2
100
AcDbEntity
  8
0
  6
CONTINUOUS
 62
     7
100
AcDbLine
 10
0.38663
 20
1.695773
 30
0.0
 11
0.38663
 21
1.809947
 31
0.0
  0
LINE
  5
58A3
100
AcDbEntity
  8
0
  6
CONTINUOUS
 62
     7
100
AcDbLine
 10
0.29841
 20
1.809947
 30
0.0
 11
0.29841
 21
1.695773
 31
0.0
  0
LINE
  5
58A4
100
AcDbEntity
  8
0
  6
CONTINUOUS
 62
     7
100
AcDbLine
 10
0.692111
 20
1.809947
 30
0.0
 11
0.692111
 21
1.695773
 31
0.0
  0
CIRCLE
  5
58A5
100
AcDbEntity
  8
0
  6
CONTINUOUS
 62
     7
100
AcDbCircle
 10
0.586614
 20
1.750892
 30
0.0
 40
0.068898
  0
CIRCLE
  5
58A6
100
AcDbEntity
  8
0
  6
CONTINUOUS
 62
     7
100
AcDbCircle
 10
0.192913
 20
1.750892
 30
0.0
 40
0.068898
  0
LINE
  5
58A7
100
AcDbEntity
  8
0
100
AcDbLine
 10
0.229766
 20
1.409105
 30
0.0
 11
0.134815
 21
1.313859
 31
0.0
  0
LINE
  5
58A8
100
AcDbEntity
  8
0
100
AcDbLine
 10
0.251012
 20
1.387924
 30
0.0
 11
0.156061
 21
1.292678
 31
0.0
  0
CIRCLE
  5
58A9
100
AcDbEntity
  8
0
  6
CONTINUOUS
 62
     7
100
AcDbCircle
 10
0.192913
 20
1.350892
 30
0.0
 40
0.068898
  0
LINE
  5
58AA
100
AcDbEntity
  8
0
  6
CONTINUOUS
 62
     7
100
AcDbLine
 10
0.38663
 20
1.209947
 30
0.0
 11
0.29841
 21
1.209947
 31
0.0
  0
LINE
  5
58AB
100
AcDbEntity
  8
0
  6
CONTINUOUS
 62
     7
100
AcDbLine
 10
0.38663
 20
1.409947
 30
0.0
 11
0.29841
 21
1.409947
 31
0.0
  0
LINE
  5
58AC
100
AcDbEntity
  8
0
  6
CONTINUOUS
 62
     7
100
AcDbLine
 10
0.29841
 20
1.295773
 30
0.0
 11
0.38663
 21
1.295773
 31
0.0
  0
LINE
  5
58AD
100
AcDbEntity
  8
0
  6
CONTINUOUS
 62
     7
100
AcDbLine
 10
0.38663
 20
1.295773
 30
0.0
 11
0.38663
 21
1.409947
 31
0.0
  0
LINE
  5
58AE
100
AcDbEntity
  8
0
  6
CONTINUOUS
 62
     7
100
AcDbLine
 10
0.29841
 20
1.409947
 30
0.0
 11
0.29841
 21
1.295773
 31
0.0
  0
LINE
  5
58AF
100
AcDbEntity
  8
0
100
AcDbLine
 10
0.229766
 20
1.609105
 30
0.0
 11
0.134815
 21
1.513859
 31
0.0
  0
LINE
  5
58B0
100
AcDbEntity
  8
0
100
AcDbLine
 10
0.251012
 20
1.587924
 30
0.0
 11
0.156061
 21
1.492678
 31
0.0
  0
CIRCLE
  5
58B1
100
AcDbEntity
  8
0
  6
CONTINUOUS
 62
     7
100
AcDbCircle
 10
0.192913
 20
1.550892
 30
0.0
 40
0.068898
  0
LINE
  5
58B2
100
AcDbEntity
  8
0
  6
CONTINUOUS
 62
     7
100
AcDbLine
 10
0.38663
 20
1.609947
 30
0.0
 11
0.29841
 21
1.609947
 31
0.0
  0
LINE
  5
58B3
100
AcDbEntity
  8
0
  6
CONTINUOUS
 62
     7
100
AcDbLine
 10
0.29841
 20
1.495773
 30
0.0
 11
0.38663
 21
1.495773
 31
0.0
  0
LINE
  5
58B4
100
AcDbEntity
  8
0
  6
CONTINUOUS
 62
     7
100
AcDbLine
 10
0.38663
 20
1.495773
 30
0.0
 11
0.38663
 21
1.609947
 31
0.0
  0
LINE
  5
58B5
100
AcDbEntity
  8
0
  6
CONTINUOUS
 62
     7
100
AcDbLine
 10
0.29841
 20
1.609947
 30
0.0
 11
0.29841
 21
1.495773
 31
0.0
  0
LINE
  5
58B6
100
AcDbEntity
  8
0
  6
CONTINUOUS
 62
     7
100
AcDbLine
 10
0.29841
 20
1.695773
 30
0.0
 11
0.38663
 21
1.695773
 31
0.0
  0
TEXT
  5
58B7
100
AcDbEntity
  8
0
100
AcDbText
 10
0.486535
 20
1.4305
 30
0.0
 40
0.04
  1
B12
  7
STYLE1
100
AcDbText
  0
LINE
  5
58B8
100
AcDbEntity
  8
0
100
AcDbLine
 10
0.623467
 20
1.409105
 30
0.0
 11
0.528516
 21
1.313859
 31
0.0
  0
LINE
  5
58B9
100
AcDbEntity
  8
0
100
AcDbLine
 10
0.644713
 20
1.387924
 30
0.0
 11
0.549762
 21
1.292678
 31
0.0
  0
CIRCLE
  5
58BA
100
AcDbEntity
  8
0
  6
CONTINUOUS
 62
     7
100
AcDbCircle
 10
0.586614
 20
1.350892
 30
0.0
 40
0.068898
  0
TEXT
  5
58BB
100
AcDbEntity
  8
0
100
AcDbText
 10
0.486535
 20
1.2305
 30
0.0
 40
0.04
  1
B13
  7
STYLE1
100
AcDbText
  0
LINE
  5
58BC
100
AcDbEntity
  8
0
  6
CONTINUOUS
 62
     7
100
AcDbLine
 10
0.692111
 20
1.409947
 30
0.0
 11
0.692111
 21
1.295773
 31
0.0
  0
LINE
  5
58BD
100
AcDbEntity
  8
0
100
AcDbLine
 10
0.623467
 20
1.609105
 30
0.0
 11
0.528516
 21
1.513859
 31
0.0
  0
LINE
  5
58BE
100
AcDbEntity
  8
0
100
AcDbLine
 10
0.644713
 20
1.587924
 30
0.0
 11
0.549762
 21
1.492678
 31
0.0
  0
CIRCLE
  5
58BF
100
AcDbEntity
  8
0
  6
CONTINUOUS
 62
     7
100
AcDbCircle
 10
0.586614
 20
1.550892
 30
0.0
 40
0.068898
  0
TEXT
  5
58C0
100
AcDbEntity
  8
0
100
AcDbText
 10
0.486535
 20
1.6305
 30
0.0
 40
0.04
  1
B11
  7
STYLE1
100
AcDbText
  0
LINE
  5
58C1
100
AcDbEntity
  8
0
  6
CONTINUOUS
 62
     7
100
AcDbLine
 10
0.692111
 20
1.609947
 30
0.0
 11
0.692111
 21
1.495773
 31
0.0
  0
LINE
  5
58C2
100
AcDbEntity
  8
0
100
AcDbLine
 10
0.229766
 20
2.009105
 30
0.0
 11
0.134815
 21
1.913859
 31
0.0
  0
LINE
  5
58C3
100
AcDbEntity
  8
0
  6
CONTINUOUS
 62
     7
100
AcDbLine
 10
0.38663
 20
1.895773
 30
0.0
 11
0.38663
 21
2.009947
 31
0.0
  0
LINE
  5
58C4
100
AcDbEntity
  8
0
  6
CONTINUOUS
 62
     7
100
AcDbLine
 10
0.29841
 20
2.009947
 30
0.0
 11
0.29841
 21
1.895773
 31
0.0
  0
CIRCLE
  5
58C5
100
AcDbEntity
  8
0
  6
CONTINUOUS
 62
     7
100
AcDbCircle
 10
0.192913
 20
1.950892
 30
0.0
 40
0.068898
  0
LINE
  5
58C6
100
AcDbEntity
  8
0
100
AcDbLine
 10
0.251012
 20
1.987924
 30
0.0
 11
0.156061
 21
1.892678
 31
0.0
  0
LINE
  5
58C7
100
AcDbEntity
  8
0
  6
CONTINUOUS
 62
     7
100
AcDbLine
 10
0.29841
 20
1.895773
 30
0.0
 11
0.38663
 21
1.895773
 31
0.0
  0
LINE
  5
58C8
100
AcDbEntity
  8
0
  6
CONTINUOUS
 62
     7
100
AcDbLine
 10
0.38663
 20
1.809947
 30
0.0
 11
0.29841
 21
1.809947
 31
0.0
  0
LINE
  5
58C9
100
AcDbEntity
  8
0
100
AcDbLine
 10
0.229766
 20
2.209105
 30
0.0
 11
0.134815
 21
2.113859
 31
0.0
  0
LINE
  5
58CA
100
AcDbEntity
  8
0
100
AcDbLine
 10
0.251012
 20
2.187924
 30
0.0
 11
0.156061
 21
2.092678
 31
0.0
  0
CIRCLE
  5
58CB
100
AcDbEntity
  8
0
  6
CONTINUOUS
 62
     7
100
AcDbCircle
 10
0.192913
 20
2.150892
 30
0.0
 40
0.068898
  0
LINE
  5
58CC
100
AcDbEntity
  8
0
  6
CONTINUOUS
 62
     7
100
AcDbLine
 10
0.29841
 20
2.095773
 30
0.0
 11
0.38663
 21
2.095773
 31
0.0
  0
LINE
  5
58CD
100
AcDbEntity
  8
0
  6
CONTINUOUS
 62
     7
100
AcDbLine
 10
0.38663
 20
2.009947
 30
0.0
 11
0.29841
 21
2.009947
 31
0.0
  0
LINE
  5
58CE
100
AcDbEntity
  8
0
  6
CONTINUOUS
 62
     7
100
AcDbLine
 10
0.38663
 20
2.209947
 30
0.0
 11
0.29841
 21
2.209947
 31
0.0
  0
LINE
  5
58CF
100
AcDbEntity
  8
0
  6
CONTINUOUS
 62
     7
100
AcDbLine
 10
0.38663
 20
2.095773
 30
0.0
 11
0.38663
 21
2.209947
 31
0.0
  0
LINE
  5
58D0
100
AcDbEntity
  8
0
  6
CONTINUOUS
 62
     7
100
AcDbLine
 10
0.29841
 20
2.209947
 30
0.0
 11
0.29841
 21
2.095773
 31
0.0
  0
LINE
  5
58D1
100
AcDbEntity
  8
0
100
AcDbLine
 10
0.623467
 20
2.009105
 30
0.0
 11
0.528516
 21
1.913859
 31
0.0
  0
LINE
  5
58D2
100
AcDbEntity
  8
0
  6
CONTINUOUS
 62
     7
100
AcDbLine
 10
0.692111
 20
2.009947
 30
0.0
 11
0.692111
 21
1.895773
 31
0.0
  0
CIRCLE
  5
58D3
100
AcDbEntity
  8
0
  6
CONTINUOUS
 62
     7
100
AcDbCircle
 10
0.586614
 20
1.950892
 30
0.0
 40
0.068898
  0
LINE
  5
58D4
100
AcDbEntity
  8
0
100
AcDbLine
 10
0.644713
 20
1.987924
 30
0.0
 11
0.549762
 21
1.892678
 31
0.0
  0
TEXT
  5
58D5
100
AcDbEntity
  8
0
100
AcDbText
 10
0.486535
 20
1.8305
 30
0.0
 40
0.04
  1
B10
  7
STYLE1
100
AcDbText
  0
LINE
  5
58D6
100
AcDbEntity
  8
0
100
AcDbLine
 10
0.623467
 20
2.209105
 30
0.0
 11
0.528516
 21
2.113859
 31
0.0
  0
LINE
  5
58D7
100
AcDbEntity
  8
0
100
AcDbLine
 10
0.644713
 20
2.187924
 30
0.0
 11
0.549762
 21
2.092678
 31
0.0
  0
CIRCLE
  5
58D8
100
AcDbEntity
  8
0
  6
CONTINUOUS
 62
     7
100
AcDbCircle
 10
0.586614
 20
2.150892
 30
0.0
 40
0.068898
  0
TEXT
  5
58D9
100
AcDbEntity
  8
0
100
AcDbText
 10
0.486535
 20
2.0305
 30
0.0
 40
0.04
  1
B9
  7
STYLE1
100
AcDbText
  0
LINE
  5
58DA
100
AcDbEntity
  8
0
  6
CONTINUOUS
 62
     7
100
AcDbLine
 10
0.692111
 20
2.209947
 30
0.0
 11
0.692111
 21
2.095773
 31
0.0
  0
LINE
  5
58DB
100
AcDbEntity
  8
0
  6
CONTINUOUS
 62
     7
100
AcDbLine
 10
0.78033
 20
1.695773
 30
0.0
 11
0.78033
 21
1.809947
 31
0.0
  0
LINE
  5
58DC
100
AcDbEntity
  8
0
  6
CONTINUOUS
 62
     7
100
AcDbLine
 10
0.78033
 20
1.295773
 30
0.0
 11
0.78033
 21
1.409947
 31
0.0
  0
LINE
  5
58DD
100
AcDbEntity
  8
0
  6
CONTINUOUS
 62
     7
100
AcDbLine
 10
0.78033
 20
1.495773
 30
0.0
 11
0.78033
 21
1.609947
 31
0.0
  0
LINE
  5
58DE
100
AcDbEntity
  8
0
  6
CONTINUOUS
 62
     7
100
AcDbLine
 10
0.78033
 20
1.895773
 30
0.0
 11
0.78033
 21
2.009947
 31
0.0
  0
LINE
  5
58DF
100
AcDbEntity
  8
0
  6
CONTINUOUS
 62
     7
100
AcDbLine
 10
0.78033
 20
2.095773
 30
0.0
 11
0.78033
 21
2.209947
 31
0.0
  0
LINE
  5
58E0
100
AcDbEntity
  8
0
  6
CONTINUOUS
 62
     7
100
AcDbLine
 10
0.692111
 20
2.495773
 30
0.0
 11
0.78033
 21
2.495773
 31
0.0
  0
LINE
  5
58E1
100
AcDbEntity
  8
0
  6
CONTINUOUS
 62
     7
100
AcDbLine
 10
0.78033
 20
2.409947
 30
0.0
 11
0.692111
 21
2.409947
 31
0.0
  0
LINE
  5
58E2
100
AcDbEntity
  8
0
  6
CONTINUOUS
 62
     7
100
AcDbLine
 10
0.692111
 20
2.295773
 30
0.0
 11
0.78033
 21
2.295773
 31
0.0
  0
LINE
  5
58E3
100
AcDbEntity
  8
0
  6
CONTINUOUS
 62
     7
100
AcDbLine
 10
0.692111
 20
2.895773
 30
0.0
 11
0.78033
 21
2.895773
 31
0.0
  0
LINE
  5
58E4
100
AcDbEntity
  8
0
  6
CONTINUOUS
 62
     7
100
AcDbLine
 10
0.78033
 20
2.809947
 30
0.0
 11
0.692111
 21
2.809947
 31
0.0
  0
LINE
  5
58E5
100
AcDbEntity
  8
0
  6
CONTINUOUS
 62
     7
100
AcDbLine
 10
0.692111
 20
2.695773
 30
0.0
 11
0.78033
 21
2.695773
 31
0.0
  0
LINE
  5
58E6
100
AcDbEntity
  8
0
  6
CONTINUOUS
 62
     7
100
AcDbLine
 10
0.78033
 20
2.609947
 30
0.0
 11
0.692111
 21
2.609947
 31
0.0
  0
LINE
  5
58E7
100
AcDbEntity
  8
0
  6
CONTINUOUS
 62
     7
100
AcDbLine
 10
0.692111
 20
3.295773
 30
0.0
 11
0.78033
 21
3.295773
 31
0.0
  0
LINE
  5
58E8
100
AcDbEntity
  8
0
  6
CONTINUOUS
 62
     7
100
AcDbLine
 10
0.78033
 20
3.209947
 30
0.0
 11
0.692111
 21
3.209947
 31
0.0
  0
LINE
  5
58E9
100
AcDbEntity
  8
0
  6
CONTINUOUS
 62
     7
100
AcDbLine
 10
0.692111
 20
3.095773
 30
0.0
 11
0.78033
 21
3.095773
 31
0.0
  0
LINE
  5
58EA
100
AcDbEntity
  8
0
  6
CONTINUOUS
 62
     7
100
AcDbLine
 10
0.78033
 20
3.009947
 30
0.0
 11
0.692111
 21
3.009947
 31
0.0
  0
LINE
  5
58EB
100
AcDbEntity
  8
0
100
AcDbLine
 10
0.623467
 20
2.809105
 30
0.0
 11
0.528516
 21
2.713859
 31
0.0
  0
LINE
  5
58EC
100
AcDbEntity
  8
0
100
AcDbLine
 10
0.229766
 20
2.809105
 30
0.0
 11
0.134815
 21
2.713859
 31
0.0
  0
LINE
  5
58ED
100
AcDbEntity
  8
0
  6
CONTINUOUS
 62
     7
100
AcDbLine
 10
0.38663
 20
2.695773
 30
0.0
 11
0.38663
 21
2.809947
 31
0.0
  0
LINE
  5
58EE
100
AcDbEntity
  8
0
  6
CONTINUOUS
 62
     7
100
AcDbLine
 10
0.29841
 20
2.809947
 30
0.0
 11
0.29841
 21
2.695773
 31
0.0
  0
LINE
  5
58EF
100
AcDbEntity
  8
0
  6
CONTINUOUS
 62
     7
100
AcDbLine
 10
0.692111
 20
2.809947
 30
0.0
 11
0.692111
 21
2.695773
 31
0.0
  0
CIRCLE
  5
58F0
100
AcDbEntity
  8
0
  6
CONTINUOUS
 62
     7
100
AcDbCircle
 10
0.586614
 20
2.750892
 30
0.0
 40
0.068898
  0
CIRCLE
  5
58F1
100
AcDbEntity
  8
0
  6
CONTINUOUS
 62
     7
100
AcDbCircle
 10
0.192913
 20
2.750892
 30
0.0
 40
0.068898
  0
LINE
  5
58F2
100
AcDbEntity
  8
0
100
AcDbLine
 10
0.229766
 20
2.609105
 30
0.0
 11
0.134815
 21
2.513859
 31
0.0
  0
LINE
  5
58F3
100
AcDbEntity
  8
0
100
AcDbLine
 10
0.251012
 20
2.587924
 30
0.0
 11
0.156061
 21
2.492678
 31
0.0
  0
LINE
  5
58F4
100
AcDbEntity
  8
0
  6
CONTINUOUS
 62
     7
100
AcDbLine
 10
0.38663
 20
2.495773
 30
0.0
 11
0.38663
 21
2.609947
 31
0.0
  0
LINE
  5
58F5
100
AcDbEntity
  8
0
  6
CONTINUOUS
 62
     7
100
AcDbLine
 10
0.29841
 20
2.609947
 30
0.0
 11
0.29841
 21
2.495773
 31
0.0
  0
CIRCLE
  5
58F6
100
AcDbEntity
  8
0
  6
CONTINUOUS
 62
     7
100
AcDbCircle
 10
0.192913
 20
2.550892
 30
0.0
 40
0.068898
  0
LINE
  5
58F7
100
AcDbEntity
  8
0
100
AcDbLine
 10
0.229766
 20
2.409105
 30
0.0
 11
0.134815
 21
2.313859
 31
0.0
  0
LINE
  5
58F8
100
AcDbEntity
  8
0
100
AcDbLine
 10
0.251012
 20
2.387924
 30
0.0
 11
0.156061
 21
2.292678
 31
0.0
  0
CIRCLE
  5
58F9
100
AcDbEntity
  8
0
  6
CONTINUOUS
 62
     7
100
AcDbCircle
 10
0.192913
 20
2.350892
 30
0.0
 40
0.068898
  0
LINE
  5
58FA
100
AcDbEntity
  8
0
  6
CONTINUOUS
 62
     7
100
AcDbLine
 10
0.29841
 20
2.495773
 30
0.0
 11
0.38663
 21
2.495773
 31
0.0
  0
LINE
  5
58FB
100
AcDbEntity
  8
0
  6
CONTINUOUS
 62
     7
100
AcDbLine
 10
0.38663
 20
2.409947
 30
0.0
 11
0.29841
 21
2.409947
 31
0.0
  0
LINE
  5
58FC
100
AcDbEntity
  8
0
  6
CONTINUOUS
 62
     7
100
AcDbLine
 10
0.29841
 20
2.295773
 30
0.0
 11
0.38663
 21
2.295773
 31
0.0
  0
LINE
  5
58FD
100
AcDbEntity
  8
0
  6
CONTINUOUS
 62
     7
100
AcDbLine
 10
0.38663
 20
2.295773
 30
0.0
 11
0.38663
 21
2.409947
 31
0.0
  0
LINE
  5
58FE
100
AcDbEntity
  8
0
  6
CONTINUOUS
 62
     7
100
AcDbLine
 10
0.29841
 20
2.409947
 30
0.0
 11
0.29841
 21
2.295773
 31
0.0
  0
LINE
  5
58FF
100
AcDbEntity
  8
0
100
AcDbLine
 10
0.251012
 20
2.787924
 30
0.0
 11
0.156061
 21
2.692678
 31
0.0
  0
LINE
  5
5900
100
AcDbEntity
  8
0
  6
CONTINUOUS
 62
     7
100
AcDbLine
 10
0.29841
 20
2.695773
 30
0.0
 11
0.38663
 21
2.695773
 31
0.0
  0
LINE
  5
5901
100
AcDbEntity
  8
0
  6
CONTINUOUS
 62
     7
100
AcDbLine
 10
0.38663
 20
2.609947
 30
0.0
 11
0.29841
 21
2.609947
 31
0.0
  0
LINE
  5
5902
100
AcDbEntity
  8
0
100
AcDbLine
 10
0.623467
 20
2.609105
 30
0.0
 11
0.528516
 21
2.513859
 31
0.0
  0
LINE
  5
5903
100
AcDbEntity
  8
0
100
AcDbLine
 10
0.644713
 20
2.587924
 30
0.0
 11
0.549762
 21
2.492678
 31
0.0
  0
LINE
  5
5904
100
AcDbEntity
  8
0
  6
CONTINUOUS
 62
     7
100
AcDbLine
 10
0.692111
 20
2.609947
 30
0.0
 11
0.692111
 21
2.495773
 31
0.0
  0
CIRCLE
  5
5905
100
AcDbEntity
  8
0
  6
CONTINUOUS
 62
     7
100
AcDbCircle
 10
0.586614
 20
2.550892
 30
0.0
 40
0.068898
  0
LINE
  5
5906
100
AcDbEntity
  8
0
100
AcDbLine
 10
0.623467
 20
2.409105
 30
0.0
 11
0.528516
 21
2.313859
 31
0.0
  0
LINE
  5
5907
100
AcDbEntity
  8
0
100
AcDbLine
 10
0.644713
 20
2.387924
 30
0.0
 11
0.549762
 21
2.292678
 31
0.0
  0
CIRCLE
  5
5908
100
AcDbEntity
  8
0
  6
CONTINUOUS
 62
     7
100
AcDbCircle
 10
0.586614
 20
2.350892
 30
0.0
 40
0.068898
  0
TEXT
  5
5909
100
AcDbEntity
  8
0
100
AcDbText
 10
0.486535
 20
2.4305
 30
0.0
 40
0.04
  1
B7
  7
STYLE1
100
AcDbText
  0
LINE
  5
590A
100
AcDbEntity
  8
0
  6
CONTINUOUS
 62
     7
100
AcDbLine
 10
0.692111
 20
2.409947
 30
0.0
 11
0.692111
 21
2.295773
 31
0.0
  0
LINE
  5
590B
100
AcDbEntity
  8
0
100
AcDbLine
 10
0.644713
 20
2.787924
 30
0.0
 11
0.549762
 21
2.692678
 31
0.0
  0
TEXT
  5
590C
100
AcDbEntity
  8
0
100
AcDbText
 10
0.486535
 20
2.6305
 30
0.0
 40
0.04
  1
B6
  7
STYLE1
100
AcDbText
  0
LINE
  5
590D
100
AcDbEntity
  8
0
100
AcDbLine
 10
0.229766
 20
3.009105
 30
0.0
 11
0.134815
 21
2.913859
 31
0.0
  0
LINE
  5
590E
100
AcDbEntity
  8
0
100
AcDbLine
 10
0.251012
 20
2.987924
 30
0.0
 11
0.156061
 21
2.892678
 31
0.0
  0
CIRCLE
  5
590F
100
AcDbEntity
  8
0
  6
CONTINUOUS
 62
     7
100
AcDbCircle
 10
0.192913
 20
2.950892
 30
0.0
 40
0.068898
  0
LINE
  5
5910
100
AcDbEntity
  8
0
  6
CONTINUOUS
 62
     7
100
AcDbLine
 10
0.29841
 20
2.895773
 30
0.0
 11
0.38663
 21
2.895773
 31
0.0
  0
LINE
  5
5911
100
AcDbEntity
  8
0
  6
CONTINUOUS
 62
     7
100
AcDbLine
 10
0.38663
 20
2.809947
 30
0.0
 11
0.29841
 21
2.809947
 31
0.0
  0
LINE
  5
5912
100
AcDbEntity
  8
0
  6
CONTINUOUS
 62
     7
100
AcDbLine
 10
0.38663
 20
3.009947
 30
0.0
 11
0.29841
 21
3.009947
 31
0.0
  0
LINE
  5
5913
100
AcDbEntity
  8
0
  6
CONTINUOUS
 62
     7
100
AcDbLine
 10
0.38663
 20
2.895773
 30
0.0
 11
0.38663
 21
3.009947
 31
0.0
  0
LINE
  5
5914
100
AcDbEntity
  8
0
  6
CONTINUOUS
 62
     7
100
AcDbLine
 10
0.29841
 20
3.009947
 30
0.0
 11
0.29841
 21
2.895773
 31
0.0
  0
LINE
  5
5915
100
AcDbEntity
  8
0
100
AcDbLine
 10
0.229766
 20
3.209105
 30
0.0
 11
0.134815
 21
3.113859
 31
0.0
  0
LINE
  5
5916
100
AcDbEntity
  8
0
100
AcDbLine
 10
0.251012
 20
3.187924
 30
0.0
 11
0.156061
 21
3.092678
 31
0.0
  0
CIRCLE
  5
5917
100
AcDbEntity
  8
0
  6
CONTINUOUS
 62
     7
100
AcDbCircle
 10
0.192913
 20
3.150892
 30
0.0
 40
0.068898
  0
LINE
  5
5918
100
AcDbEntity
  8
0
  6
CONTINUOUS
 62
     7
100
AcDbLine
 10
0.29841
 20
3.295773
 30
0.0
 11
0.38663
 21
3.295773
 31
0.0
  0
LINE
  5
5919
100
AcDbEntity
  8
0
  6
CONTINUOUS
 62
     7
100
AcDbLine
 10
0.38663
 20
3.209947
 30
0.0
 11
0.29841
 21
3.209947
 31
0.0
  0
LINE
  5
591A
100
AcDbEntity
  8
0
  6
CONTINUOUS
 62
     7
100
AcDbLine
 10
0.29841
 20
3.095773
 30
0.0
 11
0.38663
 21
3.095773
 31
0.0
  0
LINE
  5
591B
100
AcDbEntity
  8
0
  6
CONTINUOUS
 62
     7
100
AcDbLine
 10
0.38663
 20
3.095773
 30
0.0
 11
0.38663
 21
3.209947
 31
0.0
  0
LINE
  5
591C
100
AcDbEntity
  8
0
  6
CONTINUOUS
 62
     7
100
AcDbLine
 10
0.29841
 20
3.209947
 30
0.0
 11
0.29841
 21
3.095773
 31
0.0
  0
TEXT
  5
591D
100
AcDbEntity
  8
0
100
AcDbText
 10
0.486535
 20
3.0305
 30
0.0
 40
0.04
  1
B4
  7
STYLE1
100
AcDbText
  0
LINE
  5
591E
100
AcDbEntity
  8
0
100
AcDbLine
 10
0.620859
 20
3.007763
 30
0.0
 11
0.525908
 21
2.912517
 31
0.0
  0
LINE
  5
591F
100
AcDbEntity
  8
0
100
AcDbLine
 10
0.642105
 20
2.986583
 30
0.0
 11
0.547154
 21
2.891337
 31
0.0
  0
CIRCLE
  5
5920
100
AcDbEntity
  8
0
  6
CONTINUOUS
 62
     7
100
AcDbCircle
 10
0.586614
 20
2.950892
 30
0.0
 40
0.068898
  0
TEXT
  5
5921
100
AcDbEntity
  8
0
100
AcDbText
 10
0.486535
 20
2.8305
 30
0.0
 40
0.04
  1
B5
  7
STYLE1
100
AcDbText
  0
LINE
  5
5922
100
AcDbEntity
  8
0
  6
CONTINUOUS
 62
     7
100
AcDbLine
 10
0.692111
 20
3.009947
 30
0.0
 11
0.692111
 21
2.895773
 31
0.0
  0
LINE
  5
5923
100
AcDbEntity
  8
0
100
AcDbLine
 10
0.623467
 20
3.209105
 30
0.0
 11
0.528516
 21
3.113859
 31
0.0
  0
LINE
  5
5924
100
AcDbEntity
  8
0
100
AcDbLine
 10
0.644713
 20
3.187924
 30
0.0
 11
0.549762
 21
3.092678
 31
0.0
  0
CIRCLE
  5
5925
100
AcDbEntity
  8
0
  6
CONTINUOUS
 62
     7
100
AcDbCircle
 10
0.586614
 20
3.150892
 30
0.0
 40
0.068898
  0
TEXT
  5
5926
100
AcDbEntity
  8
0
100
AcDbText
 10
0.486535
 20
3.2305
 30
0.0
 40
0.04
  1
B3
  7
STYLE1
100
AcDbText
  0
LINE
  5
5927
100
AcDbEntity
  8
0
  6
CONTINUOUS
 62
     7
100
AcDbLine
 10
0.692111
 20
3.209947
 30
0.0
 11
0.692111
 21
3.095773
 31
0.0
  0
LINE
  5
5928
100
AcDbEntity
  8
0
  6
CONTINUOUS
 62
     7
100
AcDbLine
 10
0.78033
 20
2.695773
 30
0.0
 11
0.78033
 21
2.809947
 31
0.0
  0
LINE
  5
5929
100
AcDbEntity
  8
0
  6
CONTINUOUS
 62
     7
100
AcDbLine
 10
0.78033
 20
2.495773
 30
0.0
 11
0.78033
 21
2.609947
 31
0.0
  0
LINE
  5
592A
100
AcDbEntity
  8
0
  6
CONTINUOUS
 62
     7
100
AcDbLine
 10
0.78033
 20
2.295773
 30
0.0
 11
0.78033
 21
2.409947
 31
0.0
  0
LINE
  5
592B
100
AcDbEntity
  8
0
  6
CONTINUOUS
 62
     7
100
AcDbLine
 10
0.78033
 20
2.895773
 30
0.0
 11
0.78033
 21
3.009947
 31
0.0
  0
LINE
  5
592C
100
AcDbEntity
  8
0
  6
CONTINUOUS
 62
     7
100
AcDbLine
 10
0.78033
 20
3.095773
 30
0.0
 11
0.78033
 21
3.209947
 31
0.0
  0
TEXT
  5
592D
100
AcDbEntity
  8
0
100
AcDbText
 10
0.092834
 20
3.4305
 30
0.0
 40
0.04
  1
A2
  7
STYLE1
100
AcDbText
  0
LINE
  5
592E
100
AcDbEntity
  8
0
  6
CONTINUOUS
 62
     7
100
AcDbLine
 10
0.0
 20
3.67727
 30
0.0
 11
0.787402
 21
3.67727
 31
0.0
  0
LINE
  5
592F
100
AcDbEntity
  8
0
  6
CONTINUOUS
 62
     7
100
AcDbLine
 10
0.07874
 20
3.99971
 30
0.0
 11
0.269685
 21
3.99971
 31
0.0
  0
LINE
  5
5930
100
AcDbEntity
  8
0
  6
CONTINUOUS
 62
     7
100
AcDbLine
 10
0.291339
 20
3.655222
 30
0.0
 11
0.07874
 21
3.655222
 31
0.0
  0
LINE
  5
5931
100
AcDbEntity
  8
0
  6
CONTINUOUS
 62
     7
100
AcDbLine
 10
0.0
 20
3.67727
 30
0.0
 11
0.0
 21
3.92097
 31
0.0
  0
LINE
  5
5932
100
AcDbEntity
  8
0
  6
CONTINUOUS
 62
     7
100
AcDbLine
 10
0.0
 20
3.655222
 30
0.0
 11
0.07874
 21
3.655222
 31
0.0
  0
LINE
  5
5933
100
AcDbEntity
  8
0
  6
CONTINUOUS
 62
     7
100
AcDbLine
 10
0.0
 20
3.67727
 30
0.0
 11
0.0
 21
3.655222
 31
0.0
  0
ARC
  5
5934
100
AcDbEntity
  8
0
  6
CONTINUOUS
 62
     7
100
AcDbCircle
 10
0.07874
 20
3.92097
 30
0.0
 40
0.07874
100
AcDbArc
 50
90.0
 51
180.0
  0
LINE
  5
5935
100
AcDbEntity
  8
0
  6
CONTINUOUS
 62
     7
100
AcDbLine
 10
0.78033
 20
3.409947
 30
0.0
 11
0.692111
 21
3.409947
 31
0.0
  0
LINE
  5
5936
100
AcDbEntity
  8
0
  6
CONTINUOUS
 62
     7
100
AcDbLine
 10
0.685039
 20
3.655222
 30
0.0
 11
0.787402
 21
3.655222
 31
0.0
  0
LINE
  5
5937
100
AcDbEntity
  8
0
  6
CONTINUOUS
 62
     7
100
AcDbLine
 10
0.78033
 20
3.609947
 30
0.0
 11
0.692111
 21
3.609947
 31
0.0
  0
LINE
  5
5938
100
AcDbEntity
  8
0
  6
CONTINUOUS
 62
     7
100
AcDbLine
 10
0.692111
 20
3.495774
 30
0.0
 11
0.78033
 21
3.495774
 31
0.0
  0
ARC
  5
5939
100
AcDbEntity
  8
0
  6
CONTINUOUS
 62
     7
100
AcDbCircle
 10
0.708661
 20
3.92097
 30
0.0
 40
0.07874
100
AcDbArc
 50
0.0
 51
90.0
  0
SPLINE
  5
593A
100
AcDbEntity
  8
0
  6
CONTINUOUS
 62
     7
100
AcDbSpline
210
-0.7107737475464681
220
0.7034206990121558
230
0.0
 70
    24
 71
     3
 72
    14
 73
    10
 74
     0
 42
0.0000001
 43
0.0000001
 40
0.0
 40
0.0
 40
0.0
 40
0.0
 40
0.25
 40
0.25
 40
0.5
 40
0.5
 40
0.75
 40
0.75
 40
1.0
 40
1.0
 40
1.0
 40
1.0
 10
0.3269616834597802
 20
3.853532383831042
 30
0.0
 10
0.3234089466750536
 20
3.849942509319141
 30
0.0
 10
0.3198108109677982
 20
3.846306761317388
 30
0.0
 10
0.3131959536699345
 20
3.839622757110959
 30
0.0
 10
0.3100991210378012
 20
3.836493552442176
 30
0.0
 10
0.304963240063211
 20
3.831303984702147
 30
0.0
 10
0.302862706355091
 20
3.829181493541929
 30
0.0
 10
0.3000271703886081
 20
3.826316316944154
 30
0.0
 10
0.2992939426835441
 20
3.825575424609787
 30
0.0
 10
0.2992939426835441
 20
3.825575424609787
 30
0.0
  0
LINE
  5
593B
100
AcDbEntity
  8
0
  6
CONTINUOUS
 62
     7
100
AcDbLine
 10
0.420991
 20
3.835597
 30
0.0
 11
0.447859
 21
3.862746
 31
0.0
  0
LINE
  5
593C
100
AcDbEntity
  8
0
  6
CONTINUOUS
 62
     7
100
AcDbLine
 10
0.396013
 20
3.860316
 30
0.0
 11
0.420991
 21
3.835597
 31
0.0
  0
ARC
  5
593D
100
AcDbEntity
  8
0
  6
CONTINUOUS
 62
     7
100
AcDbCircle
 10
0.393701
 20
3.889474
 30
0.0
 40
0.113999
100
AcDbArc
 50
56.503901
 51
214.091908
  0
LINE
  5
593E
100
AcDbEntity
  8
0
  6
CONTINUOUS
 62
     7
100
AcDbLine
 10
0.517717
 20
3.771364
 30
0.0
 11
0.517717
 21
3.99971
 31
0.0
  0
ARC
  5
593F
100
AcDbEntity
  8
0
  6
CONTINUOUS
 62
     7
100
AcDbCircle
 10
0.393701
 20
3.889474
 30
0.0
 40
0.113999
100
AcDbArc
 50
236.503901
 51
34.091908
  0
LINE
  5
5940
100
AcDbEntity
  8
0
  6
CONTINUOUS
 62
     7
100
AcDbLine
 10
0.396013
 20
3.860316
 30
0.0
 11
0.358455
 21
3.822365
 31
0.0
  0
LINE
  5
5941
100
AcDbEntity
  8
0
  6
CONTINUOUS
 62
     7
100
AcDbLine
 10
0.269685
 20
3.99971
 30
0.0
 11
0.269685
 21
3.771364
 31
0.0
  0
LINE
  5
5942
100
AcDbEntity
  8
0
  6
CONTINUOUS
 62
     7
100
AcDbLine
 10
0.269685
 20
3.771364
 30
0.0
 11
0.517717
 21
3.771364
 31
0.0
  0
LINE
  5
5943
100
AcDbEntity
  8
0
  6
CONTINUOUS
 62
     7
100
AcDbLine
 10
0.393701
 20
3.655222
 30
0.0
 11
0.472441
 21
3.655222
 31
0.0
  0
LINE
  5
5944
100
AcDbEntity
  8
0
100
AcDbLine
 10
0.251012
 20
3.587924
 30
0.0
 11
0.156061
 21
3.492678
 31
0.0
  0
LINE
  5
5945
100
AcDbEntity
  8
0
100
AcDbLine
 10
0.229766
 20
3.609105
 30
0.0
 11
0.134815
 21
3.513859
 31
0.0
  0
LINE
  5
5946
100
AcDbEntity
  8
0
  6
CONTINUOUS
 62
     7
100
AcDbLine
 10
0.38663
 20
3.495774
 30
0.0
 11
0.38663
 21
3.609947
 31
0.0
  0
LINE
  5
5947
100
AcDbEntity
  8
0
  6
CONTINUOUS
 62
     7
100
AcDbLine
 10
0.29841
 20
3.609947
 30
0.0
 11
0.29841
 21
3.495774
 31
0.0
  0
CIRCLE
  5
5948
100
AcDbEntity
  8
0
  6
CONTINUOUS
 62
     7
100
AcDbCircle
 10
0.192913
 20
3.550892
 30
0.0
 40
0.068898
  0
TEXT
  5
5949
100
AcDbEntity
  8
0
100
AcDbText
 10
0.219716
 20
3.4305
 30
0.0
 40
0.04
  1
A1
  7
STYLE1
100
AcDbText
  0
LINE
  5
594A
100
AcDbEntity
  8
0
  6
CONTINUOUS
 62
     7
100
AcDbLine
 10
0.38663
 20
3.409947
 30
0.0
 11
0.29841
 21
3.409947
 31
0.0
  0
LINE
  5
594B
100
AcDbEntity
  8
0
  6
CONTINUOUS
 62
     7
100
AcDbLine
 10
0.29841
 20
3.495774
 30
0.0
 11
0.38663
 21
3.495774
 31
0.0
  0
LINE
  5
594C
100
AcDbEntity
  8
0
  6
CONTINUOUS
 62
     7
100
AcDbLine
 10
0.291339
 20
3.655222
 30
0.0
 11
0.393701
 21
3.655222
 31
0.0
  0
LINE
  5
594D
100
AcDbEntity
  8
0
  6
CONTINUOUS
 62
     7
100
AcDbLine
 10
0.38663
 20
3.609947
 30
0.0
 11
0.29841
 21
3.609947
 31
0.0
  0
ARC
  5
594E
100
AcDbEntity
  8
0
  6
CONTINUOUS
 62
     7
100
AcDbCircle
 10
0.393701
 20
3.889474
 30
0.0
 40
0.113999
100
AcDbArc
 50
214.091908
 51
236.503901
  0
SPLINE
  5
594F
100
AcDbEntity
  8
0
  6
CONTINUOUS
 62
     7
100
AcDbSpline
210
-0.7107737475464679
220
0.703420699012156
230
0.0
 70
    24
 71
     3
 72
    14
 73
    10
 74
     0
 42
0.0000001
 43
0.0000001
 40
0.0
 40
0.0
 40
0.0
 40
0.0
 40
0.25
 40
0.25
 40
0.5
 40
0.5
 40
0.75
 40
0.75
 40
1.0
 40
1.0
 40
1.0
 40
1.0
 10
0.3307871521421539
 20
3.794408016573145
 30
0.0
 10
0.3307871521421539
 20
3.794408016573145
 30
0.0
 10
0.3315335971768274
 20
3.795162264401474
 30
0.0
 10
0.3343688702404872
 20
3.798027175348233
 30
0.0
 10
0.3364557903951564
 20
3.80013591064881
 30
0.0
 10
0.3415992774787977
 20
3.805333164006622
 30
0.0
 10
0.3446878166182561
 20
3.808453988488587
 30
0.0
 10
0.3513050676998333
 20
3.815140411501605
 30
0.0
 10
0.3548964670313275
 20
3.818769352710425
 30
0.0
 10
0.3584548929183917
 20
3.822364975794402
 30
0.0
  0
LINE
  5
5950
100
AcDbEntity
  8
0
100
AcDbLine
 10
0.625247
 20
3.608496
 30
0.0
 11
0.530296
 21
3.51325
 31
0.0
  0
LINE
  5
5951
100
AcDbEntity
  8
0
100
AcDbLine
 10
0.646493
 20
3.587316
 30
0.0
 11
0.551542
 21
3.49207
 31
0.0
  0
LINE
  5
5952
100
AcDbEntity
  8
0
  6
CONTINUOUS
 62
     7
100
AcDbLine
 10
0.692111
 20
3.609947
 30
0.0
 11
0.692111
 21
3.495774
 31
0.0
  0
CIRCLE
  5
5953
100
AcDbEntity
  8
0
  6
CONTINUOUS
 62
     7
100
AcDbCircle
 10
0.586614
 20
3.550892
 30
0.0
 40
0.068898
  0
TEXT
  5
5954
100
AcDbEntity
  8
0
100
AcDbText
 10
0.486535
 20
3.4305
 30
0.0
 40
0.04
  1
B2
  7
STYLE1
100
AcDbText
  0
TEXT
  5
5955
100
AcDbEntity
  8
0
100
AcDbText
 10
0.613416
 20
3.4305
 30
0.0
 40
0.04
  1
B1
  7
STYLE1
100
AcDbText
  0
LINE
  5
5956
100
AcDbEntity
  8
0
  6
CONTINUOUS
 62
     7
100
AcDbLine
 10
0.685039
 20
3.655222
 30
0.0
 11
0.472441
 21
3.655222
 31
0.0
  0
LINE
  5
5957
100
AcDbEntity
  8
0
  6
CONTINUOUS
 62
     7
100
AcDbLine
 10
0.46044
 20
3.925416
 30
0.0
 11
0.422882
 21
3.887465
 31
0.0
  0
LINE
  5
5958
100
AcDbEntity
  8
0
  6
CONTINUOUS
 62
     7
100
AcDbLine
 10
0.517717
 20
3.99971
 30
0.0
 11
0.422747
 21
3.99971
 31
0.0
  0
SPLINE
  5
5959
100
AcDbEntity
  8
0
  6
CONTINUOUS
 62
     7
100
AcDbSpline
210
-0.7107737475464681
220
0.7034206990121558
230
0.0
 70
    24
 71
     3
 72
    14
 73
    10
 74
     0
 42
0.0000001
 43
0.0000001
 40
0.0
 40
0.0
 40
0.0
 40
0.0
 40
0.25
 40
0.25
 40
0.5000000000000001
 40
0.5000000000000001
 40
0.75
 40
0.75
 40
1.0
 40
1.0
 40
1.0
 40
1.0
 10
0.456614434780299
 20
3.98454043074409
 30
0.0
 10
0.456614434780299
 20
3.98454043074409
 30
0.0
 10
0.455886182711252
 20
3.98380456605742
 30
0.0
 10
0.4530413335210764
 20
3.980929978882283
 30
0.0
 10
0.4509648454690716
 20
3.978831784733985
 30
0.0
 10
0.4458077922055424
 20
3.973620823385303
 30
0.0
 10
0.4427233872338246
 20
3.970504176286665
 30
0.0
 10
0.4360996301857299
 20
3.963811179298485
 30
0.0
 10
0.4325035365127193
 20
3.960177494676916
 30
0.0
 10
0.428946694004063
 20
3.956583471522835
 30
0.0
  0
LINE
  5
595A
100
AcDbEntity
  8
0
  6
CONTINUOUS
 62
     7
100
AcDbLine
 10
0.447859
 20
3.862746
 30
0.0
 11
0.422882
 21
3.887465
 31
0.0
  0
LINE
  5
595B
100
AcDbEntity
  8
0
  6
CONTINUOUS
 62
     7
100
AcDbLine
 10
0.364654
 20
3.99971
 30
0.0
 11
0.269685
 21
3.99971
 31
0.0
  0
LINE
  5
595C
100
AcDbEntity
  8
0
  6
CONTINUOUS
 62
     7
100
AcDbLine
 10
0.339543
 20
3.916202
 30
0.0
 11
0.36452
 21
3.891483
 31
0.0
  0
LINE
  5
595D
100
AcDbEntity
  8
0
  6
CONTINUOUS
 62
     7
100
AcDbLine
 10
0.391388
 20
3.918633
 30
0.0
 11
0.366411
 21
3.943352
 31
0.0
  0
LINE
  5
595E
100
AcDbEntity
  8
0
  6
CONTINUOUS
 62
     7
100
AcDbLine
 10
0.391388
 20
3.918633
 30
0.0
 11
0.428947
 21
3.956583
 31
0.0
  0
LINE
  5
595F
100
AcDbEntity
  8
0
  6
CONTINUOUS
 62
     7
100
AcDbLine
 10
0.366411
 20
3.943352
 30
0.0
 11
0.339543
 21
3.916202
 31
0.0
  0
LINE
  5
5960
100
AcDbEntity
  8
0
  6
CONTINUOUS
 62
     7
100
AcDbLine
 10
0.326962
 20
3.853532
 30
0.0
 11
0.36452
 21
3.891483
 31
0.0
  0
LINE
  5
5961
100
AcDbEntity
  8
0
  6
CONTINUOUS
 62
     7
100
AcDbLine
 10
0.517717
 20
3.99971
 30
0.0
 11
0.708661
 21
3.99971
 31
0.0
  0
ARC
  5
5962
100
AcDbEntity
  8
0
  6
CONTINUOUS
 62
     7
100
AcDbCircle
 10
0.393701
 20
3.889474
 30
0.0
 40
0.113999
100
AcDbArc
 50
34.091908
 51
56.503901
  0
SPLINE
  5
5963
100
AcDbEntity
  8
0
  6
CONTINUOUS
 62
     7
100
AcDbSpline
210
-0.7107737475464681
220
0.7034206990121558
230
0.0
 70
    24
 71
     3
 72
    14
 73
    10
 74
     0
 42
0.0000001
 43
0.0000001
 40
0.0
 40
0.0
 40
0.0
 40
0.0
 40
0.25
 40
0.25
 40
0.5
 40
0.5
 40
0.75
 40
0.75
 40
1.0
 40
1.0
 40
1.0
 40
1.0
 10
0.4604399034626745
 20
3.925416063486194
 30
0.0
 10
0.4639939256627575
 20
3.929007236850246
 30
0.0
 10
0.4675953283811456
 20
3.932646286014094
 30
0.0
 10
0.4742125331684371
 20
3.939332662248899
 30
0.0
 10
0.4773108718246366
 20
3.942463388684627
 30
0.0
 10
0.4824477934984284
 20
3.947654008002571
 30
0.0
 10
0.4845458841925705
 20
3.949774030611319
 30
0.0
 10
0.4873650256961107
 20
3.952622641370355
 30
0.0
 10
0.4881076442389105
 20
3.953373022707449
 30
0.0
 10
0.4881076442389105
 20
3.953373022707449
 30
0.0
  0
LINE
  5
5964
100
AcDbEntity
  8
0
  6
CONTINUOUS
 62
     7
100
AcDbLine
 10
0.787402
 20
3.67727
 30
0.0
 11
0.787402
 21
3.92097
 31
0.0
  0
LINE
  5
5965
100
AcDbEntity
  8
0
  6
CONTINUOUS
 62
     7
100
AcDbLine
 10
0.78033
 20
3.495774
 30
0.0
 11
0.78033
 21
3.609947
 31
0.0
  0
LINE
  5
5966
100
AcDbEntity
  8
0
  6
CONTINUOUS
 62
     7
100
AcDbLine
 10
0.787402
 20
3.655222
 30
0.0
 11
0.787402
 21
3.67727
 31
0.0
  0
ENDBLK
  5
5968
100
AcDbEntity
  8
0
100
AcDbBlockEnd
  0
ENDSEC
  0
SECTION
  2
ENTITIES
  0
TEXT
  5
13E5
100
AcDbEntity
  8
1
100
AcDbText
 10
28.944249
 20
3.32731
 30
0.0
 40
0.075
  1
 
100
AcDbText
  0
TEXT
  5
13E6
100
AcDbEntity
  8
1
100
AcDbText
 10
29.969249
 20
3.32731
 30
0.0
 40
0.075
  1
 
100
AcDbText
  0
TEXT
  5
1430
100
AcDbEntity
  8
0
100
AcDbText
 10
54.671027
 20
19.700789
 30
0.0
 40
0.075
  1
 
100
AcDbText
  0
TEXT
  5
144B
100
AcDbEntity
  8
1
100
AcDbText
 10
32.219249
 20
9.017179
 30
0.0
 40
0.065
  1
 
100
AcDbText
  0
TEXT
  5
144C
100
AcDbEntity
  8
1
100
AcDbText
 10
33.234249
 20
9.017179
 30
0.0
 40
0.065
  1
 
100
AcDbText
  0
TEXT
  5
23DA
100
AcDbEntity
  8
1
100
AcDbText
 10
38.006129
 20
6.942021
 30
0.0
 40
0.075
  1
 
 50
90.0
100
AcDbText
  0
TEXT
  5
23DB
100
AcDbEntity
  8
1
100
AcDbText
 10
38.006129
 20
7.967021
 30
0.0
 40
0.075
  1
 
 50
90.0
100
AcDbText
  0
TEXT
  5
2430
100
AcDbEntity
  8
0
100
AcDbText
 10
15.857693
 20
47.148353
 30
0.0
 40
0.075
  1
 
 50
90.0
100
AcDbText
  0
TEXT
  5
2459
100
AcDbEntity
  8
0
100
AcDbText
 10
29.286504
 20
61.238102
 30
0.0
 40
0.075
  1
 
 50
90.0
100
AcDbText
  0
TEXT
  5
245A
100
AcDbEntity
  8
0
100
AcDbText
 10
28.421402
 20
84.514784
 30
0.0
 40
0.075
  1
 
 50
90.0
100
AcDbText
  0
TEXT
  5
245B
100
AcDbEntity
  8
0
100
AcDbText
 10
29.273208
 20
106.206278
 30
0.0
 40
0.075
  1
 
 50
90.0
100
AcDbText
  0
TEXT
  5
245C
100
AcDbEntity
  8
0
100
AcDbText
 10
28.408107
 20
129.482959
 30
0.0
 40
0.075
  1
 
 50
90.0
100
AcDbText
  0
TEXT
  5
24A1
100
AcDbEntity
  8
0
100
AcDbText
 10
28.774834
 20
83.812048
 30
0.0
 40
0.075
  1
 
 50
90.0
100
AcDbText
  0
TEXT
  5
24A2
100
AcDbEntity
  8
0
100
AcDbText
 10
27.909732
 20
107.08873
 30
0.0
 40
0.075
  1
 
 50
90.0
100
AcDbText
  0
TEXT
  5
24B0
100
AcDbEntity
  8
DIM
  6
CONTINUOUS
100
AcDbText
 10
23.203377
 20
10.089631
 30
0.0
 40
0.1
  1

 50
90.0
  7
ROMANS
100
AcDbText
  0
TEXT
  5
40C2
100
AcDbEntity
  8
PCBDIMS
100
AcDbText
 10
-5.6888
 20
4.826808
 30
0.0
 40
0.196558
  1
 
100
AcDbText
  0
TEXT
  5
40C3
100
AcDbEntity
  8
PCBDIMS
100
AcDbText
 10
-5.6888
 20
4.09174
 30
0.0
 40
0.196558
  1
 
100
AcDbText
  0
TEXT
  5
472A
100
AcDbEntity
  8
1
100
AcDbText
 10
90.692421
 20
8.339981
 30
0.0
 40
0.075
  1
 
100
AcDbText
  0
TEXT
  5
472B
100
AcDbEntity
  8
1
100
AcDbText
 10
91.717421
 20
8.339981
 30
0.0
 40
0.075
  1
 
100
AcDbText
  0
INSERT
  5
472C
100
AcDbEntity
  8
0
100
AcDbBlockReference
  2
CSHEET
 10
20.926075
 20
8.210125
 30
0.0
 41
0.7
 42
0.7
 43
0.7
  0
TEXT
  5
472D
100
AcDbEntity
  8
0
100
AcDbText
 10
34.777719
 20
9.556344
 30
0.0
 40
0.063735
  1
8 ISOLATED
100
AcDbText
  0
TEXT
  5
472E
100
AcDbEntity
  8
0
100
AcDbText
 10
52.100743
 20
11.893447
 30
0.0
 40
0.15
  1
 
100
AcDbText
  0
TEXT
  5
472F
100
AcDbEntity
  8
0
100
AcDbText
 10
31.838057
 20
8.782805
 30
0.0
 40
0.042
  1
2014
100
AcDbText
  0
TEXT
  5
4730
100
AcDbEntity
  8
0
100
AcDbText
 10
33.733852
 20
10.050143
 30
0.0
 40
0.049
  1
4/14
100
AcDbText
  0
TEXT
  5
4731
100
AcDbEntity
  8
0
100
AcDbText
 10
32.989412
 20
10.050143
 30
0.0
 40
0.049
  1
R. DAVIS
100
AcDbText
  0
TEXT
  5
4732
100
AcDbEntity
  8
0
100
AcDbText
 10
32.1319
 20
10.015143
 30
0.0
 40
0.07
  1
SEE NOTES
100
AcDbText
  0
TEXT
  5
4733
100
AcDbEntity
  8
0
100
AcDbText
 10
35.7894
 20
8.772643
 30
0.0
 40
0.07
  1
1
100
AcDbText
  0
TEXT
  5
4734
100
AcDbEntity
  8
0
100
AcDbText
 10
35.4044
 20
8.772643
 30
0.0
 40
0.07
  1
1
100
AcDbText
  0
TEXT
  5
4735
100
AcDbEntity
  8
0
100
AcDbText
 10
34.6694
 20
8.772643
 30
0.0
 40
0.07
  1
1=1
100
AcDbText
  0
TEXT
  5
4750
100
AcDbEntity
  8
0
100
AcDbText
 10
34.55045
 20
9.667657
 30
0.0
 40
0.07875
  1
CTI 2500C-8-TC
100
AcDbText
  0
TEXT
  5
4751
100
AcDbEntity
  8
0
100
AcDbText
 10
34.06353
 20
9.195662
 30
0.0
 40
0.043339
  1
2500C-8-TC_frontview.dwg
100
AcDbText
  0
TEXT
  5
4752
100
AcDbEntity
  8
0
100
AcDbText
 10
51.149669
 20
12.28985
 30
0.0
 40
0.1
  1
 
100
AcDbText
  0
TEXT
  5
4753
100
AcDbEntity
  8
0
100
AcDbText
 10
50.359364
 20
11.88985
 30
0.0
 40
0.15
  1
 
100
AcDbText
  0
TEXT
  5
4754
100
AcDbEntity
  8
0
100
AcDbText
 10
46.54562
 20
25.312861
 30
0.0
 40
0.09
  1
 
  7
ROMANS
100
AcDbText
  0
LWPOLYLINE
  5
4755
100
AcDbEntity
  8
0
100
AcDbPolyline
 90
        3
 70
     0
 43
0.049
 10
31.745487
 20
8.798629
 10
31.820749
 20
8.798629
 10
31.745487
 20
8.798629
  0
TEXT
  5
4762
100
AcDbEntity
  8
1
100
AcDbText
 10
112.992676
 20
11.431449
 30
0.0
 40
0.075
  1
 
100
AcDbText
  0
TEXT
  5
4763
100
AcDbEntity
  8
1
100
AcDbText
 10
114.017676
 20
11.431449
 30
0.0
 40
0.075
  1
 
100
AcDbText
  0
TEXT
  5
4764
100
AcDbEntity
  8
TICS
 62
     7
100
AcDbText
 10
84.352045
 20
18.555206
 30
0.0
 40
0.093966
  1
 
 41
0.334759
  7
SN5
 72
     5
 11
84.383501
 21
18.555206
 31
0.0
100
AcDbText
  0
TEXT
  5
4765
100
AcDbEntity
  8
0
100
AcDbText
 10
65.839667
 20
27.63282
 30
0.0
 40
0.125
  1
 
  7
ROMANS
100
AcDbText
  0
TEXT
  5
48F9
100
AcDbEntity
  8
0
100
AcDbText
 10
68.892739
 20
28.679075
 30
0.0
 40
0.075
  1
 
100
AcDbText
  0
TEXT
  5
48FA
100
AcDbEntity
  8
0
100
AcDbText
 10
66.457442
 20
20.551692
 30
0.0
 40
0.18
  1

100
AcDbText
  0
TEXT
  5
5675
100
AcDbEntity
  8
0
100
AcDbText
 10
34.70514
 20
9.451238
 30
0.0
 40
0.063735
  1
 
100
AcDbText
  0
LINE
  5
5765
100
AcDbEntity
  8
0
  6
CONTINUOUS
100
AcDbLine
 10
27.215112
 20
17.669653
 30
0.0
 11
27.215112
 21
11.156653
 31
0.0
  0
LINE
  5
577D
100
AcDbEntity
  8
0
  6
CONTINUOUS
100
AcDbLine
 10
26.348762
 20
11.156653
 30
0.0
 11
27.215112
 21
11.156653
 31
0.0
  0
LINE
  5
5786
100
AcDbEntity
  8
CONST
  6
CONTINUOUS
100
AcDbLine
 10
26.563762
 20
16.918503
 30
0.0
 11
26.563762
 21
16.128453
 31
0.0
  0
LINE
  5
5787
100
AcDbEntity
  8
CONST
  6
CONTINUOUS
100
AcDbLine
 10
27.063762
 20
16.128453
 30
0.0
 11
27.063762
 21
16.918503
 31
0.0
  0
LINE
  5
578B
100
AcDbEntity
  8
CONST
  6
CONTINUOUS
100
AcDbLine
 10
26.563762
 20
16.128453
 30
0.0
 11
27.063762
 21
16.128453
 31
0.0
  0
LINE
  5
578E
100
AcDbEntity
  8
CONST
  6
CONTINUOUS
100
AcDbLine
 10
27.063762
 20
16.918503
 30
0.0
 11
26.563762
 21
16.918503
 31
0.0
  0
CIRCLE
  5
57A1
100
AcDbEntity
  8
CONST
100
AcDbCircle
 10
26.993762
 20
16.665478
 30
0.0
 40
0.0325
  0
CIRCLE
  5
57A2
100
AcDbEntity
  8
CONST
100
AcDbCircle
 10
26.813762
 20
16.665478
 30
0.0
 40
0.0325
  0
CIRCLE
  5
57A3
100
AcDbEntity
  8
CONST
100
AcDbCircle
 10
26.633762
 20
16.665478
 30
0.0
 40
0.0325
  0
LINE
  5
57A4
100
AcDbEntity
  8
CONST
100
AcDbLine
 10
27.053762
 20
16.138478
 30
0.0
 11
27.053762
 21
16.908478
 31
0.0
  0
LINE
  5
57A5
100
AcDbEntity
  8
CONST
100
AcDbLine
 10
26.573762
 20
16.908478
 30
0.0
 11
26.573762
 21
16.138478
 31
0.0
  0
LINE
  5
57A7
100
AcDbEntity
  8
0
100
AcDbLine
 10
26.431937
 20
15.912163
 30
0.0
 11
26.431937
 21
16.072364
 31
0.0
  0
LINE
  5
57A8
100
AcDbEntity
  8
0
100
AcDbLine
 10
27.131937
 20
17.262163
 30
0.0
 11
27.131937
 21
17.030919
 31
0.0
  0
SPLINE
  5
57AA
100
AcDbEntity
  8
0
100
AcDbSpline
210
0.0
220
1.0
230
0.0
 70
    24
 71
     3
 72
     8
 73
     4
 74
     0
 42
0.0000001
 43
0.0000001
 40
0.0696790143387451
 40
0.0696790143387451
 40
0.0696790143387451
 40
0.0696790143387451
 40
0.9303209856612422
 40
0.9303209856612422
 40
0.9303209856612422
 40
0.9303209856612422
 10
26.43193718438655
 20
15.91216296024453
 30
0.0
 10
26.51227496503435
 20
15.91216296024453
 30
0.0
 10
27.05159940373874
 20
15.91216296024453
 30
0.0
 10
27.13193718438656
 20
15.91216296024453
 30
0.0
  0
LINE
  5
57AE
100
AcDbEntity
  8
CONST
100
AcDbLine
 10
26.573762
 20
16.138478
 30
0.0
 11
27.053762
 21
16.138478
 31
0.0
  0
LINE
  5
57AF
100
AcDbEntity
  8
0
  6
CONTINUOUS
100
AcDbLine
 10
26.431937
 20
16.072364
 30
0.0
 11
27.131937
 21
16.072364
 31
0.0
  0
CIRCLE
  5
57B2
100
AcDbEntity
  8
CONST
100
AcDbCircle
 10
26.633762
 20
16.190478
 30
0.0
 40
0.0325
  0
CIRCLE
  5
57B3
100
AcDbEntity
  8
CONST
100
AcDbCircle
 10
26.813762
 20
16.190478
 30
0.0
 40
0.0325
  0
CIRCLE
  5
57B4
100
AcDbEntity
  8
CONST
100
AcDbCircle
 10
26.813762
 20
16.285478
 30
0.0
 40
0.0325
  0
CIRCLE
  5
57B5
100
AcDbEntity
  8
CONST
100
AcDbCircle
 10
26.633762
 20
16.285478
 30
0.0
 40
0.0325
  0
CIRCLE
  5
57B8
100
AcDbEntity
  8
CONST
100
AcDbCircle
 10
26.633762
 20
16.380478
 30
0.0
 40
0.0325
  0
CIRCLE
  5
57B9
100
AcDbEntity
  8
CONST
100
AcDbCircle
 10
26.813762
 20
16.380478
 30
0.0
 40
0.0325
  0
CIRCLE
  5
57BA
100
AcDbEntity
  8
CONST
100
AcDbCircle
 10
26.813762
 20
16.475478
 30
0.0
 40
0.0325
  0
CIRCLE
  5
57BB
100
AcDbEntity
  8
CONST
100
AcDbCircle
 10
26.633762
 20
16.475478
 30
0.0
 40
0.0325
  0
CIRCLE
  5
57BC
100
AcDbEntity
  8
CONST
100
AcDbCircle
 10
26.633762
 20
16.570478
 30
0.0
 40
0.0325
  0
CIRCLE
  5
57BD
100
AcDbEntity
  8
CONST
100
AcDbCircle
 10
26.813762
 20
16.570478
 30
0.0
 40
0.0325
  0
CIRCLE
  5
57C1
100
AcDbEntity
  8
CONST
100
AcDbCircle
 10
26.993762
 20
16.190478
 30
0.0
 40
0.0325
  0
CIRCLE
  5
57C2
100
AcDbEntity
  8
CONST
100
AcDbCircle
 10
26.993762
 20
16.285478
 30
0.0
 40
0.0325
  0
CIRCLE
  5
57C4
100
AcDbEntity
  8
CONST
100
AcDbCircle
 10
26.993762
 20
16.380478
 30
0.0
 40
0.0325
  0
CIRCLE
  5
57C5
100
AcDbEntity
  8
CONST
100
AcDbCircle
 10
26.993762
 20
16.475478
 30
0.0
 40
0.0325
  0
CIRCLE
  5
57C6
100
AcDbEntity
  8
CONST
100
AcDbCircle
 10
26.993762
 20
16.570478
 30
0.0
 40
0.0325
  0
LINE
  5
57CC
100
AcDbEntity
  8
CONST
100
AcDbLine
 10
27.053762
 20
16.908478
 30
0.0
 11
26.573762
 21
16.908478
 31
0.0
  0
SPLINE
  5
57CD
100
AcDbEntity
  8
0
100
AcDbSpline
210
0.0
220
0.0
230
1.0
 70
     8
 71
     3
 72
    60
 73
    56
 74
     0
 42
0.0000001
 43
0.0000001
 40
0.0
 40
0.0
 40
0.0
 40
0.0
 40
0.0714285714285714
 40
0.0714285714285714
 40
0.0714285714285714
 40
0.0714285714285714
 40
0.1428571428571428
 40
0.1428571428571428
 40
0.1428571428571428
 40
0.1428571428571428
 40
0.2142857142857143
 40
0.2142857142857143
 40
0.2142857142857143
 40
0.2142857142857143
 40
0.2857142857142857
 40
0.2857142857142857
 40
0.2857142857142857
 40
0.2857142857142857
 40
0.3571428571428571
 40
0.3571428571428571
 40
0.3571428571428571
 40
0.3571428571428571
 40
0.4285714285714285
 40
0.4285714285714285
 40
0.4285714285714285
 40
0.4285714285714285
 40
0.5
 40
0.5
 40
0.5
 40
0.5
 40
0.5714285714285713
 40
0.5714285714285713
 40
0.5714285714285713
 40
0.5714285714285713
 40
0.6428571428571427
 40
0.6428571428571427
 40
0.6428571428571427
 40
0.6428571428571427
 40
0.7142857142857141
 40
0.7142857142857141
 40
0.7142857142857141
 40
0.7142857142857141
 40
0.7857142857142855
 40
0.7857142857142855
 40
0.7857142857142855
 40
0.7857142857142855
 40
0.8571428571428569
 40
0.8571428571428569
 40
0.8571428571428569
 40
0.8571428571428569
 40
0.9285714285714282
 40
0.9285714285714282
 40
0.9285714285714282
 40
0.9285714285714282
 40
1.0
 40
1.0
 40
1.0
 40
1.0
 10
26.6789608064338
 20
17.06282437756736
 30
0.0
 10
26.6789608064338
 20
17.06282437756736
 30
0.0
 10
26.77589387729994
 20
17.06282437756736
 30
0.0
 10
26.77589387729994
 20
17.06282437756736
 30
0.0
 10
26.77589387729994
 20
17.06282437756736
 30
0.0
 10
26.77589387729994
 20
17.06282437756736
 30
0.0
 10
26.77589387729994
 20
17.1112889444965
 30
0.0
 10
26.77589387729994
 20
17.1112889444965
 30
0.0
 10
26.77589387729994
 20
17.1112889444965
 30
0.0
 10
26.77589387729994
 20
17.1112889444965
 30
0.0
 10
26.70153167257552
 20
17.1112889444965
 30
0.0
 10
26.70153167257552
 20
17.1112889444965
 30
0.0
 10
26.70153167257552
 20
17.1112889444965
 30
0.0
 10
26.70153167257552
 20
17.1112889444965
 30
0.0
 10
26.70153167257552
 20
17.18145429882721
 30
0.0
 10
26.70153167257552
 20
17.18145429882721
 30
0.0
 10
26.70153167257552
 20
17.18145429882721
 30
0.0
 10
26.70153167257552
 20
17.18145429882721
 30
0.0
 10
26.79409072769364
 20
17.18145429882721
 30
0.0
 10
26.79409072769364
 20
17.18145429882721
 30
0.0
 10
26.79409072769364
 20
17.18145429882721
 30
0.0
 10
26.79409072769364
 20
17.18145429882721
 30
0.0
 10
26.79409072769364
 20
17.06264721221303
 30
0.0
 10
26.79409072769364
 20
17.06264721221303
 30
0.0
 10
26.79409072769364
 20
17.06264721221303
 30
0.0
 10
26.79409072769364
 20
17.06264721221303
 30
0.0
 10
26.84500805052829
 20
17.06264721221303
 30
0.0
 10
26.84500805052829
 20
17.06264721221303
 30
0.0
 10
26.84500805052829
 20
17.06264721221303
 30
0.0
 10
26.84500805052829
 20
17.06264721221303
 30
0.0
 10
26.84500805052829
 20
17.18162752717366
 30
0.0
 10
26.84500805052829
 20
17.18162752717366
 30
0.0
 10
26.84500805052829
 20
17.18162752717366
 30
0.0
 10
26.84500805052829
 20
17.18162752717366
 30
0.0
 10
26.91342143635506
 20
17.18162752717366
 30
0.0
 10
26.91342143635506
 20
17.18162752717366
 30
0.0
 10
26.91342143635506
 20
17.18162752717366
 30
0.0
 10
26.91342143635506
 20
17.18162752717366
 30
0.0
 10
26.91342143635506
 20
17.23359603111067
 30
0.0
 10
26.91342143635506
 20
17.23359603111067
 30
0.0
 10
26.91342143635506
 20
17.23359603111067
 30
0.0
 10
26.91342143635506
 20
17.23359603111067
 30
0.0
 10
26.67651198753616
 20
17.23359603111067
 30
0.0
 10
26.67651198753616
 20
17.23359603111067
 30
0.0
 10
26.67651198753616
 20
17.23359603111067
 30
0.0
 10
26.66338994029206
 20
17.23359603111067
 30
0.0
 10
26.65044112139443
 20
17.22922201536264
 30
0.0
 10
26.65044112139443
 20
17.20647398386658
 30
0.0
 10
26.65044112139443
 20
17.20647398386658
 30
0.0
 10
26.65044112139443
 20
17.20647398386658
 30
0.0
 10
26.65044112139443
 20
17.08976925945713
 30
0.0
 10
26.65044112139443
 20
17.08976925945713
 30
0.0
 10
26.65044112139443
 20
17.08976925945713
 30
0.0
 10
26.65044112139443
 20
17.05845036181933
 30
0.0
 10
26.67878757808735
 20
17.06282437756736
 30
0.0
 10
26.67878757808735
 20
17.06282437756736
 30
0.0
  0
SPLINE
  5
57CE
100
AcDbEntity
  8
0
100
AcDbSpline
210
0.0
220
0.0
230
1.0
 70
    11
 71
     3
 72
    64
 73
    60
 74
     0
 42
0.0000001
 43
0.0000001
 40
0.0
 40
0.0
 40
0.0
 40
0.0
 40
0.0666666666666667
 40
0.0666666666666667
 40
0.0666666666666667
 40
0.0666666666666667
 40
0.1333333333333333
 40
0.1333333333333333
 40
0.1333333333333333
 40
0.1333333333333333
 40
0.2
 40
0.2
 40
0.2
 40
0.2
 40
0.2666666666666666
 40
0.2666666666666666
 40
0.2666666666666666
 40
0.2666666666666666
 40
0.3333333333333333
 40
0.3333333333333333
 40
0.3333333333333333
 40
0.3333333333333333
 40
0.4
 40
0.4
 40
0.4
 40
0.4
 40
0.4666666666666666
 40
0.4666666666666666
 40
0.4666666666666666
 40
0.4666666666666666
 40
0.5333333333333333
 40
0.5333333333333333
 40
0.5333333333333333
 40
0.5333333333333333
 40
0.6
 40
0.6
 40
0.6
 40
0.6
 40
0.6666666666666666
 40
0.6666666666666666
 40
0.6666666666666666
 40
0.6666666666666666
 40
0.7333333333333333
 40
0.7333333333333333
 40
0.7333333333333333
 40
0.7333333333333333
 40
0.8
 40
0.8
 40
0.8
 40
0.8
 40
0.8666666666666666
 40
0.8666666666666666
 40
0.8666666666666666
 40
0.8666666666666666
 40
0.9333333333333332
 40
0.9333333333333332
 40
0.9333333333333332
 40
0.9333333333333332
 40
1.0
 40
1.0
 40
1.0
 40
1.0
 10
26.6789608064338
 20
17.06282437756736
 30
0.0
 10
26.6789608064338
 20
17.06282437756736
 30
0.0
 10
26.77589387729994
 20
17.06282437756736
 30
0.0
 10
26.77589387729994
 20
17.06282437756736
 30
0.0
 10
26.77589387729994
 20
17.06282437756736
 30
0.0
 10
26.77589387729994
 20
17.06282437756736
 30
0.0
 10
26.77589387729994
 20
17.1112889444965
 30
0.0
 10
26.77589387729994
 20
17.1112889444965
 30
0.0
 10
26.77589387729994
 20
17.1112889444965
 30
0.0
 10
26.77589387729994
 20
17.1112889444965
 30
0.0
 10
26.70153167257552
 20
17.1112889444965
 30
0.0
 10
26.70153167257552
 20
17.1112889444965
 30
0.0
 10
26.70153167257552
 20
17.1112889444965
 30
0.0
 10
26.70153167257552
 20
17.1112889444965
 30
0.0
 10
26.70153167257552
 20
17.18145429882721
 30
0.0
 10
26.70153167257552
 20
17.18145429882721
 30
0.0
 10
26.70153167257552
 20
17.18145429882721
 30
0.0
 10
26.70153167257552
 20
17.18145429882721
 30
0.0
 10
26.79409072769364
 20
17.18145429882721
 30
0.0
 10
26.79409072769364
 20
17.18145429882721
 30
0.0
 10
26.79409072769364
 20
17.18145429882721
 30
0.0
 10
26.79409072769364
 20
17.18145429882721
 30
0.0
 10
26.79409072769364
 20
17.06264721221303
 30
0.0
 10
26.79409072769364
 20
17.06264721221303
 30
0.0
 10
26.79409072769364
 20
17.06264721221303
 30
0.0
 10
26.79409072769364
 20
17.06264721221303
 30
0.0
 10
26.84500805052829
 20
17.06264721221303
 30
0.0
 10
26.84500805052829
 20
17.06264721221303
 30
0.0
 10
26.84500805052829
 20
17.06264721221303
 30
0.0
 10
26.84500805052829
 20
17.06264721221303
 30
0.0
 10
26.84500805052829
 20
17.18162752717366
 30
0.0
 10
26.84500805052829
 20
17.18162752717366
 30
0.0
 10
26.84500805052829
 20
17.18162752717366
 30
0.0
 10
26.84500805052829
 20
17.18162752717366
 30
0.0
 10
26.91342143635506
 20
17.18162752717366
 30
0.0
 10
26.91342143635506
 20
17.18162752717366
 30
0.0
 10
26.91342143635506
 20
17.18162752717366
 30
0.0
 10
26.91342143635506
 20
17.18162752717366
 30
0.0
 10
26.91342143635506
 20
17.23359603111067
 30
0.0
 10
26.91342143635506
 20
17.23359603111067
 30
0.0
 10
26.91342143635506
 20
17.23359603111067
 30
0.0
 10
26.91342143635506
 20
17.23359603111067
 30
0.0
 10
26.67651198753616
 20
17.23359603111067
 30
0.0
 10
26.67651198753616
 20
17.23359603111067
 30
0.0
 10
26.67651198753616
 20
17.23359603111067
 30
0.0
 10
26.66338994029206
 20
17.23359603111067
 30
0.0
 10
26.65044112139443
 20
17.22922201536264
 30
0.0
 10
26.65044112139443
 20
17.20647398386658
 30
0.0
 10
26.65044112139443
 20
17.20647398386658
 30
0.0
 10
26.65044112139443
 20
17.20647398386658
 30
0.0
 10
26.65044112139443
 20
17.08976925945713
 30
0.0
 10
26.65044112139443
 20
17.08976925945713
 30
0.0
 10
26.65044112139443
 20
17.08976925945713
 30
0.0
 10
26.65044112139443
 20
17.05845036181933
 30
0.0
 10
26.67878757808735
 20
17.06282437756736
 30
0.0
 10
26.67878757808735
 20
17.06282437756736
 30
0.0
 10
26.67878757808735
 20
17.06282437756736
 30
0.0
 10
26.67878757808735
 20
17.06282437756736
 30
0.0
 10
26.6789608064338
 20
17.06282437756736
 30
0.0
 10
26.6789608064338
 20
17.06282437756736
 30
0.0
  0
SPLINE
  5
57CF
100
AcDbEntity
  8
0
100
AcDbSpline
210
0.0
220
0.0
230
-1.0
 70
    11
 71
     3
 72
    20
 73
    16
 74
     0
 42
0.0000001
 43
0.0000001
 40
0.0
 40
0.0
 40
0.0
 40
0.0
 40
0.25
 40
0.25
 40
0.25
 40
0.25
 40
0.5
 40
0.5
 40
0.5
 40
0.5
 40
0.75
 40
0.75
 40
0.75
 40
0.75
 40
1.0
 40
1.0
 40
1.0
 40
1.0
 10
26.91329151509522
 20
17.16445036181933
 30
0.0
 10
26.91329151509522
 20
17.16445036181933
 30
0.0
 10
26.91329151509522
 20
17.06251729095319
 30
0.0
 10
26.91329151509522
 20
17.06251729095319
 30
0.0
 10
26.91329151509522
 20
17.06251729095319
 30
0.0
 10
26.91329151509522
 20
17.06251729095319
 30
0.0
 10
26.86355529462278
 20
17.06251729095319
 30
0.0
 10
26.86355529462278
 20
17.06251729095319
 30
0.0
 10
26.86355529462278
 20
17.06251729095319
 30
0.0
 10
26.86355529462278
 20
17.06251729095319
 30
0.0
 10
26.86355529462278
 20
17.16445036181933
 30
0.0
 10
26.86355529462278
 20
17.16445036181933
 30
0.0
 10
26.86355529462278
 20
17.16445036181933
 30
0.0
 10
26.86355529462278
 20
17.16445036181933
 30
0.0
 10
26.91329151509522
 20
17.16445036181933
 30
0.0
 10
26.91329151509522
 20
17.16445036181933
 30
0.0
  0
LINE
  5
57D0
100
AcDbEntity
  8
0
  6
CONTINUOUS
100
AcDbLine
 10
26.431937
 20
17.030919
 30
0.0
 11
27.131937
 21
17.030919
 31
0.0
  0
SPLINE
  5
57D1
100
AcDbEntity
  8
0
100
AcDbSpline
210
0.0
220
1.0
230
0.0
 70
    24
 71
     3
 72
     8
 73
     4
 74
     0
 42
0.0000001
 43
0.0000001
 40
0.1686603278396837
 40
0.1686603278396837
 40
0.1686603278396837
 40
0.1686603278396837
 40
0.8308794820276599
 40
0.8308794820276599
 40
0.8308794820276599
 40
0.8308794820276599
 10
26.43193718438655
 20
17.26216296024453
 30
0.0
 10
26.58520854926577
 20
17.26216296024453
 30
0.0
 10
26.97833269343887
 20
17.26216296024453
 30
0.0
 10
27.13193718438657
 20
17.26216296024453
 30
0.0
  0
CIRCLE
  5
57D2
100
AcDbEntity
  8
CONST
100
AcDbCircle
 10
26.633762
 20
16.760478
 30
0.0
 40
0.0325
  0
CIRCLE
  5
57D3
100
AcDbEntity
  8
CONST
100
AcDbCircle
 10
26.813762
 20
16.760478
 30
0.0
 40
0.0325
  0
CIRCLE
  5
57D4
100
AcDbEntity
  8
CONST
100
AcDbCircle
 10
26.813762
 20
16.855478
 30
0.0
 40
0.0325
  0
CIRCLE
  5
57D5
100
AcDbEntity
  8
CONST
100
AcDbCircle
 10
26.633762
 20
16.855478
 30
0.0
 40
0.0325
  0
CIRCLE
  5
57DD
100
AcDbEntity
  8
CONST
100
AcDbCircle
 10
26.993762
 20
16.760478
 30
0.0
 40
0.0325
  0
CIRCLE
  5
57DE
100
AcDbEntity
  8
CONST
100
AcDbCircle
 10
26.993762
 20
16.855478
 30
0.0
 40
0.0325
  0
ELLIPSE
  5
57E0
100
AcDbEntity
  8
0
100
AcDbEllipse
 10
26.945386
 20
17.214498
 30
0.0
 11
0.0
 21
0.0158346456692914
 31
0.0
210
0.0
220
0.0
230
1.0
 40
1.0
 41
0.0
 42
6.283179999999999
  0
SPLINE
  5
57E1
100
AcDbEntity
  8
0
100
AcDbSpline
210
0.0
220
0.0
230
-1.0
 70
    11
 71
     3
 72
    36
 73
    32
 74
     0
 42
0.0000001
 43
0.0000001
 40
0.0
 40
0.0
 40
0.0
 40
0.0
 40
0.125
 40
0.125
 40
0.125
 40
0.125
 40
0.25
 40
0.25
 40
0.25
 40
0.25
 40
0.375
 40
0.375
 40
0.375
 40
0.375
 40
0.5
 40
0.5
 40
0.5
 40
0.5
 40
0.625
 40
0.625
 40
0.625
 40
0.625
 40
0.75
 40
0.75
 40
0.75
 40
0.75
 40
0.875
 40
0.875
 40
0.875
 40
0.875
 40
1.0
 40
1.0
 40
1.0
 40
1.0
 10
26.94132694816607
 20
17.21543067677996
 30
0.0
 10
26.94132694816607
 20
17.21543067677996
 30
0.0
 10
26.94588206627632
 20
17.21543067677996
 30
0.0
 10
26.94588206627632
 20
17.21543067677996
 30
0.0
 10
26.94588206627632
 20
17.21543067677996
 30
0.0
 10
26.94684663320545
 20
17.21543067677996
 30
0.0
 10
26.94760647572513
 20
17.21552910197681
 30
0.0
 10
26.94814978281175
 20
17.21572988937839
 30
0.0
 10
26.94814978281175
 20
17.21572988937839
 30
0.0
 10
26.94870096391412
 20
17.21593067677996
 30
0.0
 10
26.94911434974088
 20
17.21625351142563
 30
0.0
 10
26.94939781430781
 20
17.21669445630752
 30
0.0
 10
26.94939781430781
 20
17.21669445630752
 30
0.0
 10
26.94967734186687
 20
17.21713146418154
 30
0.0
 10
26.94981907415034
 20
17.21760784213429
 30
0.0
 10
26.94981907415034
 20
17.21812752717366
 30
0.0
 10
26.94981907415034
 20
17.21812752717366
 30
0.0
 10
26.94981907415034
 20
17.21888343268547
 30
0.0
 10
26.94954742060703
 20
17.21950547992957
 30
0.0
 10
26.94899623950466
 20
17.21999366890595
 30
0.0
 10
26.94899623950466
 20
17.21999366890595
 30
0.0
 10
26.94844899541017
 20
17.22048185788232
 30
0.0
 10
26.9475828536779
 20
17.22072595237051
 30
0.0
 10
26.94639387729994
 20
17.22072595237051
 30
0.0
 10
26.94639387729994
 20
17.22072595237051
 30
0.0
 10
26.94639387729994
 20
17.22072595237051
 30
0.0
 10
26.94132694816607
 20
17.22072595237051
 30
0.0
 10
26.94132694816607
 20
17.22072595237051
 30
0.0
 10
26.94132694816607
 20
17.22072595237051
 30
0.0
 10
26.94132694816607
 20
17.22072595237051
 30
0.0
 10
26.94132694816607
 20
17.21543067677996
 30
0.0
 10
26.94132694816607
 20
17.21543067677996
 30
0.0
  0
SPLINE
  5
57E2
100
AcDbEntity
  8
0
100
AcDbSpline
210
0.0
220
0.0
230
1.0
 70
    11
 71
     3
 72
    80
 73
    76
 74
     0
 42
0.0000001
 43
0.0000001
 40
0.0
 40
0.0
 40
0.0
 40
0.0
 40
0.0526315789473684
 40
0.0526315789473684
 40
0.0526315789473684
 40
0.0526315789473684
 40
0.1052631578947368
 40
0.1052631578947368
 40
0.1052631578947368
 40
0.1052631578947368
 40
0.1578947368421053
 40
0.1578947368421053
 40
0.1578947368421053
 40
0.1578947368421053
 40
0.2105263157894737
 40
0.2105263157894737
 40
0.2105263157894737
 40
0.2105263157894737
 40
0.2631578947368421
 40
0.2631578947368421
 40
0.2631578947368421
 40
0.2631578947368421
 40
0.3157894736842105
 40
0.3157894736842105
 40
0.3157894736842105
 40
0.3157894736842105
 40
0.3684210526315789
 40
0.3684210526315789
 40
0.3684210526315789
 40
0.3684210526315789
 40
0.4210526315789474
 40
0.4210526315789474
 40
0.4210526315789474
 40
0.4210526315789474
 40
0.4736842105263158
 40
0.4736842105263158
 40
0.4736842105263158
 40
0.4736842105263158
 40
0.5263157894736842
 40
0.5263157894736842
 40
0.5263157894736842
 40
0.5263157894736842
 40
0.5789473684210527
 40
0.5789473684210527
 40
0.5789473684210527
 40
0.5789473684210527
 40
0.6315789473684211
 40
0.6315789473684211
 40
0.6315789473684211
 40
0.6315789473684211
 40
0.6842105263157894
 40
0.6842105263157894
 40
0.6842105263157894
 40
0.6842105263157894
 40
0.7368421052631577
 40
0.7368421052631577
 40
0.7368421052631577
 40
0.7368421052631577
 40
0.7894736842105261
 40
0.7894736842105261
 40
0.7894736842105261
 40
0.7894736842105261
 40
0.8421052631578945
 40
0.8421052631578945
 40
0.8421052631578945
 40
0.8421052631578945
 40
0.8947368421052628
 40
0.8947368421052628
 40
0.8947368421052628
 40
0.8947368421052628
 40
0.9473684210526311
 40
0.9473684210526311
 40
0.9473684210526311
 40
0.9473684210526311
 40
1.0
 40
1.0
 40
1.0
 40
1.0
 10
26.93921277493774
 20
17.20648973189807
 30
0.0
 10
26.93921277493774
 20
17.20648973189807
 30
0.0
 10
26.93921277493774
 20
17.22249366890594
 30
0.0
 10
26.93921277493774
 20
17.22249366890594
 30
0.0
 10
26.93921277493774
 20
17.22249366890594
 30
0.0
 10
26.93921277493774
 20
17.22249366890594
 30
0.0
 10
26.94630726312671
 20
17.22249366890594
 30
0.0
 10
26.94630726312671
 20
17.22249366890594
 30
0.0
 10
26.94630726312671
 20
17.22249366890594
 30
0.0
 10
26.9477324599771
 20
17.22249366890594
 30
0.0
 10
26.94881907415033
 20
17.22234799961461
 30
0.0
 10
26.94955923163066
 20
17.2220605980398
 30
0.0
 10
26.94955923163066
 20
17.2220605980398
 30
0.0
 10
26.95030332611884
 20
17.22177713347287
 30
0.0
 10
26.95089387729995
 20
17.22126925945713
 30
0.0
 10
26.95134269619758
 20
17.22054091300043
 30
0.0
 10
26.95134269619758
 20
17.22054091300043
 30
0.0
 10
26.95178364107947
 20
17.21981256654374
 30
0.0
 10
26.95200411352042
 20
17.21900547992957
 30
0.0
 10
26.95200411352042
 20
17.21812752717366
 30
0.0
 10
26.95200411352042
 20
17.21812752717366
 30
0.0
 10
26.95200411352042
 20
17.21698973189807
 30
0.0
 10
26.95163797178813
 20
17.21603697599256
 30
0.0
 10
26.9509017513157
 20
17.21525744843351
 30
0.0
 10
26.9509017513157
 20
17.21525744843351
 30
0.0
 10
26.95016553084325
 20
17.21447792087445
 30
0.0
 10
26.94903167257553
 20
17.21398185788232
 30
0.0
 10
26.94749623950467
 20
17.21376925945713
 30
0.0
 10
26.94749623950467
 20
17.21376925945713
 30
0.0
 10
26.94805923163065
 20
17.21350154292169
 30
0.0
 10
26.94848442848105
 20
17.21323776339414
 30
0.0
 10
26.94877183005584
 20
17.21297398386657
 30
0.0
 10
26.94877183005584
 20
17.21297398386657
 30
0.0
 10
26.94939387729994
 20
17.21240705473272
 30
0.0
 10
26.94997655446529
 20
17.21169445630752
 30
0.0
 10
26.95053167257553
 20
17.21084406260673
 30
0.0
 10
26.95053167257553
 20
17.21084406260673
 30
0.0
 10
26.95053167257553
 20
17.21084406260673
 30
0.0
 10
26.95331513714247
 20
17.20648973189807
 30
0.0
 10
26.95331513714247
 20
17.20648973189807
 30
0.0
 10
26.95331513714247
 20
17.20648973189807
 30
0.0
 10
26.95331513714247
 20
17.20648973189807
 30
0.0
 10
26.95065371981963
 20
17.20648973189807
 30
0.0
 10
26.95065371981963
 20
17.20648973189807
 30
0.0
 10
26.95065371981963
 20
17.20648973189807
 30
0.0
 10
26.95065371981963
 20
17.20648973189807
 30
0.0
 10
26.9485356095834
 20
17.20982044055949
 30
0.0
 10
26.9485356095834
 20
17.20982044055949
 30
0.0
 10
26.9485356095834
 20
17.20982044055949
 30
0.0
 10
26.94791749934718
 20
17.21077713347287
 30
0.0
 10
26.94740568832357
 20
17.21151729095319
 30
0.0
 10
26.94700411352042
 20
17.21202516496894
 30
0.0
 10
26.94700411352042
 20
17.21202516496894
 30
0.0
 10
26.94660647572514
 20
17.21253303898468
 30
0.0
 10
26.94624820800861
 20
17.21289130670122
 30
0.0
 10
26.94592931037081
 20
17.21309209410279
 30
0.0
 10
26.94592931037081
 20
17.21309209410279
 30
0.0
 10
26.94561434974089
 20
17.21329681851224
 30
0.0
 10
26.94529151509522
 20
17.21343855079571
 30
0.0
 10
26.94496474344167
 20
17.21352122796106
 30
0.0
 10
26.94496474344167
 20
17.21352122796106
 30
0.0
 10
26.94472458596136
 20
17.21356847205555
 30
0.0
 10
26.94433088517395
 20
17.21359603111067
 30
0.0
 10
26.94378364107947
 20
17.21359603111067
 30
0.0
 10
26.94378364107947
 20
17.21359603111067
 30
0.0
 10
26.94378364107947
 20
17.21359603111067
 30
0.0
 10
26.94132694816607
 20
17.21359603111067
 30
0.0
 10
26.94132694816607
 20
17.21359603111067
 30
0.0
 10
26.94132694816607
 20
17.21359603111067
 30
0.0
 10
26.94132694816607
 20
17.21359603111067
 30
0.0
 10
26.94132694816607
 20
17.20648973189807
 30
0.0
 10
26.94132694816607
 20
17.20648973189807
 30
0.0
 10
26.94132694816607
 20
17.20648973189807
 30
0.0
 10
26.94132694816607
 20
17.20648973189807
 30
0.0
 10
26.93921277493774
 20
17.20648973189807
 30
0.0
 10
26.93921277493774
 20
17.20648973189807
 30
0.0
  0
SPLINE
  5
57E3
100
AcDbEntity
  8
0
100
AcDbSpline
210
0.0
220
0.0
230
-1.0
 70
    11
 71
     3
 72
    36
 73
    32
 74
     0
 42
0.0000001
 43
0.0000001
 40
0.0
 40
0.0
 40
0.0
 40
0.0
 40
0.125
 40
0.125
 40
0.125
 40
0.125
 40
0.25
 40
0.25
 40
0.25
 40
0.25
 40
0.375
 40
0.375
 40
0.375
 40
0.375
 40
0.5
 40
0.5
 40
0.5
 40
0.5
 40
0.625
 40
0.625
 40
0.625
 40
0.625
 40
0.75
 40
0.75
 40
0.75
 40
0.75
 40
0.875
 40
0.875
 40
0.875
 40
0.875
 40
1.0
 40
1.0
 40
1.0
 40
1.0
 10
26.94132694816607
 20
17.21543067677996
 30
0.0
 10
26.94132694816607
 20
17.21543067677996
 30
0.0
 10
26.94588206627632
 20
17.21543067677996
 30
0.0
 10
26.94588206627632
 20
17.21543067677996
 30
0.0
 10
26.94588206627632
 20
17.21543067677996
 30
0.0
 10
26.94684663320545
 20
17.21543067677996
 30
0.0
 10
26.94760647572513
 20
17.21552910197681
 30
0.0
 10
26.94814978281175
 20
17.21572988937839
 30
0.0
 10
26.94814978281175
 20
17.21572988937839
 30
0.0
 10
26.94870096391412
 20
17.21593067677996
 30
0.0
 10
26.94911434974088
 20
17.21625351142563
 30
0.0
 10
26.94939781430781
 20
17.21669445630752
 30
0.0
 10
26.94939781430781
 20
17.21669445630752
 30
0.0
 10
26.94967734186687
 20
17.21713146418154
 30
0.0
 10
26.94981907415034
 20
17.21760784213429
 30
0.0
 10
26.94981907415034
 20
17.21812752717366
 30
0.0
 10
26.94981907415034
 20
17.21812752717366
 30
0.0
 10
26.94981907415034
 20
17.21888343268547
 30
0.0
 10
26.94954742060703
 20
17.21950547992957
 30
0.0
 10
26.94899623950466
 20
17.21999366890595
 30
0.0
 10
26.94899623950466
 20
17.21999366890595
 30
0.0
 10
26.94844899541017
 20
17.22048185788232
 30
0.0
 10
26.9475828536779
 20
17.22072595237051
 30
0.0
 10
26.94639387729994
 20
17.22072595237051
 30
0.0
 10
26.94639387729994
 20
17.22072595237051
 30
0.0
 10
26.94639387729994
 20
17.22072595237051
 30
0.0
 10
26.94132694816607
 20
17.22072595237051
 30
0.0
 10
26.94132694816607
 20
17.22072595237051
 30
0.0
 10
26.94132694816607
 20
17.22072595237051
 30
0.0
 10
26.94132694816607
 20
17.22072595237051
 30
0.0
 10
26.94132694816607
 20
17.21543067677996
 30
0.0
 10
26.94132694816607
 20
17.21543067677996
 30
0.0
  0
SPLINE
  5
57E4
100
AcDbEntity
  8
0
100
AcDbSpline
210
0.0
220
0.0
230
1.0
 70
    11
 71
     3
 72
    80
 73
    76
 74
     0
 42
0.0000001
 43
0.0000001
 40
0.0
 40
0.0
 40
0.0
 40
0.0
 40
0.0526315789473684
 40
0.0526315789473684
 40
0.0526315789473684
 40
0.0526315789473684
 40
0.1052631578947368
 40
0.1052631578947368
 40
0.1052631578947368
 40
0.1052631578947368
 40
0.1578947368421053
 40
0.1578947368421053
 40
0.1578947368421053
 40
0.1578947368421053
 40
0.2105263157894737
 40
0.2105263157894737
 40
0.2105263157894737
 40
0.2105263157894737
 40
0.2631578947368421
 40
0.2631578947368421
 40
0.2631578947368421
 40
0.2631578947368421
 40
0.3157894736842105
 40
0.3157894736842105
 40
0.3157894736842105
 40
0.3157894736842105
 40
0.3684210526315789
 40
0.3684210526315789
 40
0.3684210526315789
 40
0.3684210526315789
 40
0.4210526315789474
 40
0.4210526315789474
 40
0.4210526315789474
 40
0.4210526315789474
 40
0.4736842105263158
 40
0.4736842105263158
 40
0.4736842105263158
 40
0.4736842105263158
 40
0.5263157894736842
 40
0.5263157894736842
 40
0.5263157894736842
 40
0.5263157894736842
 40
0.5789473684210527
 40
0.5789473684210527
 40
0.5789473684210527
 40
0.5789473684210527
 40
0.6315789473684211
 40
0.6315789473684211
 40
0.6315789473684211
 40
0.6315789473684211
 40
0.6842105263157894
 40
0.6842105263157894
 40
0.6842105263157894
 40
0.6842105263157894
 40
0.7368421052631577
 40
0.7368421052631577
 40
0.7368421052631577
 40
0.7368421052631577
 40
0.7894736842105261
 40
0.7894736842105261
 40
0.7894736842105261
 40
0.7894736842105261
 40
0.8421052631578945
 40
0.8421052631578945
 40
0.8421052631578945
 40
0.8421052631578945
 40
0.8947368421052628
 40
0.8947368421052628
 40
0.8947368421052628
 40
0.8947368421052628
 40
0.9473684210526311
 40
0.9473684210526311
 40
0.9473684210526311
 40
0.9473684210526311
 40
1.0
 40
1.0
 40
1.0
 40
1.0
 10
26.93921277493774
 20
17.20648973189807
 30
0.0
 10
26.93921277493774
 20
17.20648973189807
 30
0.0
 10
26.93921277493774
 20
17.22249366890594
 30
0.0
 10
26.93921277493774
 20
17.22249366890594
 30
0.0
 10
26.93921277493774
 20
17.22249366890594
 30
0.0
 10
26.93921277493774
 20
17.22249366890594
 30
0.0
 10
26.94630726312671
 20
17.22249366890594
 30
0.0
 10
26.94630726312671
 20
17.22249366890594
 30
0.0
 10
26.94630726312671
 20
17.22249366890594
 30
0.0
 10
26.9477324599771
 20
17.22249366890594
 30
0.0
 10
26.94881907415033
 20
17.22234799961461
 30
0.0
 10
26.94955923163066
 20
17.2220605980398
 30
0.0
 10
26.94955923163066
 20
17.2220605980398
 30
0.0
 10
26.95030332611884
 20
17.22177713347287
 30
0.0
 10
26.95089387729995
 20
17.22126925945713
 30
0.0
 10
26.95134269619758
 20
17.22054091300043
 30
0.0
 10
26.95134269619758
 20
17.22054091300043
 30
0.0
 10
26.95178364107947
 20
17.21981256654374
 30
0.0
 10
26.95200411352042
 20
17.21900547992957
 30
0.0
 10
26.95200411352042
 20
17.21812752717366
 30
0.0
 10
26.95200411352042
 20
17.21812752717366
 30
0.0
 10
26.95200411352042
 20
17.21698973189807
 30
0.0
 10
26.95163797178813
 20
17.21603697599256
 30
0.0
 10
26.9509017513157
 20
17.21525744843351
 30
0.0
 10
26.9509017513157
 20
17.21525744843351
 30
0.0
 10
26.95016553084325
 20
17.21447792087445
 30
0.0
 10
26.94903167257553
 20
17.21398185788232
 30
0.0
 10
26.94749623950467
 20
17.21376925945713
 30
0.0
 10
26.94749623950467
 20
17.21376925945713
 30
0.0
 10
26.94805923163065
 20
17.21350154292169
 30
0.0
 10
26.94848442848105
 20
17.21323776339414
 30
0.0
 10
26.94877183005584
 20
17.21297398386657
 30
0.0
 10
26.94877183005584
 20
17.21297398386657
 30
0.0
 10
26.94939387729994
 20
17.21240705473272
 30
0.0
 10
26.94997655446529
 20
17.21169445630752
 30
0.0
 10
26.95053167257553
 20
17.21084406260673
 30
0.0
 10
26.95053167257553
 20
17.21084406260673
 30
0.0
 10
26.95053167257553
 20
17.21084406260673
 30
0.0
 10
26.95331513714247
 20
17.20648973189807
 30
0.0
 10
26.95331513714247
 20
17.20648973189807
 30
0.0
 10
26.95331513714247
 20
17.20648973189807
 30
0.0
 10
26.95331513714247
 20
17.20648973189807
 30
0.0
 10
26.95065371981963
 20
17.20648973189807
 30
0.0
 10
26.95065371981963
 20
17.20648973189807
 30
0.0
 10
26.95065371981963
 20
17.20648973189807
 30
0.0
 10
26.95065371981963
 20
17.20648973189807
 30
0.0
 10
26.9485356095834
 20
17.20982044055949
 30
0.0
 10
26.9485356095834
 20
17.20982044055949
 30
0.0
 10
26.9485356095834
 20
17.20982044055949
 30
0.0
 10
26.94791749934718
 20
17.21077713347287
 30
0.0
 10
26.94740568832357
 20
17.21151729095319
 30
0.0
 10
26.94700411352042
 20
17.21202516496894
 30
0.0
 10
26.94700411352042
 20
17.21202516496894
 30
0.0
 10
26.94660647572514
 20
17.21253303898468
 30
0.0
 10
26.94624820800861
 20
17.21289130670122
 30
0.0
 10
26.94592931037081
 20
17.21309209410279
 30
0.0
 10
26.94592931037081
 20
17.21309209410279
 30
0.0
 10
26.94561434974089
 20
17.21329681851224
 30
0.0
 10
26.94529151509522
 20
17.21343855079571
 30
0.0
 10
26.94496474344167
 20
17.21352122796106
 30
0.0
 10
26.94496474344167
 20
17.21352122796106
 30
0.0
 10
26.94472458596136
 20
17.21356847205555
 30
0.0
 10
26.94433088517395
 20
17.21359603111067
 30
0.0
 10
26.94378364107947
 20
17.21359603111067
 30
0.0
 10
26.94378364107947
 20
17.21359603111067
 30
0.0
 10
26.94378364107947
 20
17.21359603111067
 30
0.0
 10
26.94132694816607
 20
17.21359603111067
 30
0.0
 10
26.94132694816607
 20
17.21359603111067
 30
0.0
 10
26.94132694816607
 20
17.21359603111067
 30
0.0
 10
26.94132694816607
 20
17.21359603111067
 30
0.0
 10
26.94132694816607
 20
17.20648973189807
 30
0.0
 10
26.94132694816607
 20
17.20648973189807
 30
0.0
 10
26.94132694816607
 20
17.20648973189807
 30
0.0
 10
26.94132694816607
 20
17.20648973189807
 30
0.0
 10
26.93921277493774
 20
17.20648973189807
 30
0.0
 10
26.93921277493774
 20
17.20648973189807
 30
0.0
  0
LINE
  5
57EC
100
AcDbEntity
  8
0
100
AcDbLine
 10
27.131937
 20
11.556903
 30
0.0
 11
27.131937
 21
11.722163
 31
0.0
  0
LINE
  5
57F6
100
AcDbEntity
  8
0
100
AcDbLine
 10
27.131937
 20
11.556903
 30
0.0
 11
26.431937
 21
11.556903
 31
0.0
  0
LINE
  5
57F7
100
AcDbEntity
  8
0
100
AcDbLine
 10
27.131937
 20
11.722163
 30
0.0
 11
26.431937
 21
11.722163
 31
0.0
  0
TEXT
  5
57F8
100
AcDbEntity
  8
0
100
AcDbText
 10
26.530887
 20
11.589715
 30
0.0
 40
0.1
  1
2500C
 51
5.0
  7
STYLE4
100
AcDbText
  0
LINE
  5
57FC
100
AcDbEntity
  8
0
100
AcDbLine
 10
26.431937
 20
11.722163
 30
0.0
 11
26.431937
 21
11.556903
 31
0.0
  0
LINE
  5
57FF
100
AcDbEntity
  8
0
100
AcDbLine
 10
27.215112
 20
17.669653
 30
0.0
 11
26.348762
 21
17.669653
 31
0.0
  0
LINE
  5
5801
100
AcDbEntity
  8
0
  6
CONTINUOUS
100
AcDbLine
 10
26.348762
 20
11.156653
 30
0.0
 11
26.348762
 21
17.669653
 31
0.0
  0
CIRCLE
  5
5802
100
AcDbEntity
  8
0
100
AcDbCircle
 10
26.643937
 20
17.463303
 30
0.0
 40
0.131
  0
CIRCLE
  5
5803
100
AcDbEntity
  8
0
100
AcDbCircle
 10
26.643937
 20
17.463303
 30
0.0
 40
0.161
  0
CIRCLE
  5
5804
100
AcDbEntity
  8
0
100
AcDbCircle
 10
26.643937
 20
11.369903
 30
0.0
 40
0.131
  0
CIRCLE
  5
5805
100
AcDbEntity
  8
0
100
AcDbCircle
 10
26.643937
 20
11.369903
 30
0.0
 40
0.161
  0
INSERT
  5
5969
102
{ACAD_REACTORS
330
61F0
330
6364
102
}
100
AcDbEntity
  8
0
100
AcDbBlockReference
  2
A$C3A441B30
 10
26.427711
 20
11.816429
 30
0.0
  0
LINE
  5
596A
100
AcDbEntity
  8
0
100
AcDbLine
 10
26.431937
 20
17.030919
 30
0.0
 11
26.431937
 21
17.262163
 31
0.0
  0
LINE
  5
596B
100
AcDbEntity
  8
0
100
AcDbLine
 10
27.131937
 20
16.072364
 30
0.0
 11
27.131937
 21
15.912163
 31
0.0
  0
TEXT
  5
5A31
100
AcDbEntity
  8
0
100
AcDbText
 10
26.479594
 20
16.846898
 30
0.0
 40
0.06
  1
MODULE STATUS
 41
0.8
  7
STYLE3
100
AcDbText
  0
ARC
  5
5A32
100
AcDbEntity
  8
0
100
AcDbCircle
 10
26.949937
 20
16.774403
 30
0.0
 40
0.025
100
AcDbArc
 50
0.0
 51
90.0
  0
ARC
  5
5A33
100
AcDbEntity
  8
0
100
AcDbCircle
 10
26.629937
 20
16.774403
 30
0.0
 40
0.025
100
AcDbArc
 50
90.0
 51
180.0
  0
LINE
  5
5A34
100
AcDbEntity
  8
0
100
AcDbLine
 10
26.974937
 20
16.774403
 30
0.0
 11
26.974937
 21
16.369163
 31
0.0
  0
LINE
  5
5A35
100
AcDbEntity
  8
0
100
AcDbLine
 10
26.604937
 20
16.369163
 30
0.0
 11
26.604937
 21
16.774403
 31
0.0
  0
TEXT
  5
5A36
100
AcDbEntity
  8
0
100
AcDbText
 10
26.611846
 20
16.241253
 30
0.0
 40
0.06
  1
0 = GOOD
 41
0.8
  7
STYLE3
100
AcDbText
  0
LINE
  5
5A37
100
AcDbEntity
  8
0
100
AcDbLine
 10
26.949937
 20
16.344163
 30
0.0
 11
26.629937
 21
16.344163
 31
0.0
  0
ARC
  5
5A38
100
AcDbEntity
  8
0
100
AcDbCircle
 10
26.629937
 20
16.369163
 30
0.0
 40
0.025
100
AcDbArc
 50
180.0
 51
270.0
  0
ARC
  5
5A39
100
AcDbEntity
  8
0
100
AcDbCircle
 10
26.949937
 20
16.369163
 30
0.0
 40
0.025
100
AcDbArc
 50
270.0
 51
0.0
  0
LINE
  5
5A3A
100
AcDbEntity
  8
0
100
AcDbLine
 10
26.629937
 20
16.799403
 30
0.0
 11
26.949937
 21
16.799403
 31
0.0
  0
TEXT
  5
5A3B
100
AcDbEntity
  8
0
100
AcDbText
 10
26.659223
 20
15.947765
 30
0.0
 40
0.09
  1
8-TC
 41
0.73
 51
10.0
  7
STYLE2
100
AcDbText
  0
LINE
  5
5AD0
100
AcDbEntity
  8
0
100
AcDbLine
 10
26.871702
 20
16.677403
 30
0.0
 11
26.856173
 21
16.588403
 31
0.0
  0
LINE
  5
5AD1
100
AcDbEntity
  8
0
100
AcDbLine
 10
26.910958
 20
16.710403
 30
0.0
 11
26.862802
 21
16.434403
 31
0.0
  0
LINE
  5
5AD2
100
AcDbEntity
  8
0
100
AcDbLine
 10
26.85059
 20
16.556403
 30
0.0
 11
26.835061
 21
16.467403
 31
0.0
  0
LINE
  5
5AD3
100
AcDbEntity
  8
0
100
AcDbLine
 10
26.744813
 20
16.677403
 30
0.0
 11
26.729285
 21
16.588403
 31
0.0
  0
LINE
  5
5AD4
100
AcDbEntity
  8
0
100
AcDbLine
 10
26.723701
 20
16.556403
 30
0.0
 11
26.708173
 21
16.467403
 31
0.0
  0
LINE
  5
5AD5
100
AcDbEntity
  8
0
100
AcDbLine
 10
26.717073
 20
16.710403
 30
0.0
 11
26.668916
 21
16.434403
 31
0.0
  0
LINE
  5
5AD6
100
AcDbEntity
  8
0
100
AcDbLine
 10
26.856173
 20
16.588403
 30
0.0
 11
26.729285
 21
16.588403
 31
0.0
  0
LINE
  5
5AD7
100
AcDbEntity
  8
0
100
AcDbLine
 10
26.871702
 20
16.677403
 30
0.0
 11
26.744813
 21
16.677403
 31
0.0
  0
LINE
  5
5AD8
100
AcDbEntity
  8
0
100
AcDbLine
 10
26.862802
 20
16.434403
 30
0.0
 11
26.668916
 21
16.434403
 31
0.0
  0
HATCH
  5
5AD9
100
AcDbEntity
  8
0
100
AcDbHatch
 10
0.0
 20
0.0
 30
0.0
210
0.0
220
0.0
230
1.0
  2
ANSI31
 70
     0
 71
     0
 91
        4
 92
        7
 72
     0
 73
     1
 93
        8
 10
26.78993718438656
 20
16.43440318153467
 10
26.86280180541717
 20
16.43440318153467
 10
26.88687993964746
 20
16.57240318153467
 10
26.78993718438655
 20
16.57240318153467
 10
26.78993718438655
 20
16.55640318153467
 10
26.85058972820789
 20
16.55640318153467
 10
26.83506107642169
 20
16.46740318153467
 10
26.78993718438656
 20
16.46740318153467
 97
        0
 92
        7
 72
     0
 73
     1
 93
        8
 10
26.66891629489539
 20
16.43440318153466
 10
26.78993718438656
 20
16.43440318153467
 10
26.78993718438656
 20
16.46740318153467
 10
26.70817265330533
 20
16.46740318153466
 10
26.72370130509153
 20
16.55640318153467
 10
26.78993718438655
 20
16.55640318153467
 10
26.78993718438656
 20
16.57240318153467
 10
26.69299442912566
 20
16.57240318153466
 97
        0
 92
        7
 72
     0
 73
     1
 93
        8
 10
26.69299442912567
 20
16.57240318153467
 10
26.78993718438656
 20
16.57240318153467
 10
26.78993718438655
 20
16.58840318153467
 10
26.72928464056522
 20
16.58840318153467
 10
26.74481329235141
 20
16.67740318153467
 10
26.78993718438655
 20
16.67740318153467
 10
26.78993718438655
 20
16.71040318153467
 10
26.71707256335594
 20
16.71040318153467
 97
        0
 92
        7
 72
     0
 73
     1
 93
        8
 10
26.78993718438656
 20
16.67740318153467
 10
26.87170171546777
 20
16.67740318153467
 10
26.85617306368158
 20
16.58840318153467
 10
26.78993718438656
 20
16.58840318153467
 10
26.78993718438656
 20
16.57240318153467
 10
26.88687993964745
 20
16.57240318153467
 10
26.91095807387773
 20
16.71040318153467
 10
26.78993718438656
 20
16.71040318153466
 97
        0
 75
     0
 76
     1
 52
180.0
 41
0.01
 77
     0
 78
     1
 53
225.0
 43
51.217297
 44
31.937326
 45
0.0008838834764832
 46
-0.0008838834764832
 79
     0
 47
0.000749
 98
        4
 10
26.840303
 20
16.452448
 10
26.750356
 20
16.446454
 10
26.712878
 20
16.614287
 10
26.890524
 20
16.680971
  0
LINE
  5
5ADA
100
AcDbEntity
  8
0
100
AcDbLine
 10
26.910958
 20
16.710403
 30
0.0
 11
26.717073
 21
16.710403
 31
0.0
  0
LINE
  5
5ADB
100
AcDbEntity
  8
0
100
AcDbLine
 10
26.85059
 20
16.556403
 30
0.0
 11
26.723701
 21
16.556403
 31
0.0
  0
LINE
  5
5ADC
100
AcDbEntity
  8
0
100
AcDbLine
 10
26.835061
 20
16.467403
 30
0.0
 11
26.708173
 21
16.467403
 31
0.0
  0
LINE
  5
5ADD
100
AcDbEntity
  8
0
100
AcDbLine
 10
26.634437
 20
16.799403
 30
0.0
 11
26.945437
 21
16.799403
 31
0.0
  0
TEXT
  5
5AEC
100
AcDbEntity
  8
0
100
AcDbText
 10
34.51108
 20
9.458725
 30
0.0
 40
0.063735
  1
THERMOCOUPLE INPUTS
100
AcDbText
  0
HATCH
  5
61F0
100
AcDbEntity
  8
0
100
AcDbHatch
 10
0.0
 20
0.0
 30
0.0
210
0.0
220
0.0
230
1.0
  2
ANSI31
 70
     0
 71
     1
 91
        6
 92
        7
 72
     1
 73
     1
 93
        2
 10
26.94542714501647
 20
15.3673204437359
 42
1.0
 10
27.08322242060702
 20
15.3673204437359
 42
1.0
 97
        1
330
5969
 92
        7
 72
     1
 73
     1
 93
        3
 10
27.0511773466751
 20
15.22553361261087
 42
0.5910236091927356
 10
26.94542714501647
 20
15.1673204437359
 42
0.1428286307838971
 10
26.95622615517772
 20
15.13028756698008
 42
0.0
 97
        1
330
5969
 92
        7
 72
     1
 73
     1
 93
        4
 10
27.07242341044577
 20
15.20435332049172
 42
0.1101785948493383
 10
27.0511773466751
 20
15.22553361261087
 42
0.0
 10
26.95622615517772
 20
15.13028756698008
 42
0.1101785948493478
 10
26.97747221894839
 20
15.10910727486092
 42
0.0
 97
        1
330
5969
 92
        7
 72
     1
 73
     1
 93
        3
 10
27.08322242060702
 20
15.1673204437359
 42
0.1428286307838905
 10
27.07242341044577
 20
15.20435332049172
 42
0.0
 10
26.97747221894839
 20
15.10910727486092
 42
0.5910236091927126
 97
        1
330
5969
 92
        7
 72
     0
 73
     1
 93
        4
 10
27.20804092542417
 20
15.22637553093415
 10
27.11982124787874
 20
15.22637553093415
 10
27.11982124787874
 20
15.11220227653999
 10
27.20804092542416
 20
15.11220227653999
 97
        1
330
5969
 92
        7
 72
     0
 73
     1
 93
        4
 10
27.20804092542416
 20
15.42637551385061
 10
27.11982124787874
 20
15.42637551385061
 10
27.11982124787873
 20
15.31220240612143
 10
27.20804092542416
 20
15.31220240612143
 97
        1
330
5969
 75
     0
 76
     1
 52
0.0
 41
0.03
 77
     0
 78
     1
 53
45.0
 43
0.0
 44
0.0
 45
-0.0026516504294496
 46
0.0026516504294496
 79
     0
 47
0.000621
 98
        6
 10
26.991495
 20
15.397231
 10
27.008262
 20
15.204219
 10
27.036207
 20
15.192427
 10
27.0567
 20
15.158293
 10
27.150471
 20
15.184359
 10
27.16165
 20
15.356891
  0
HATCH
  5
6364
100
AcDbEntity
  8
0
100
AcDbHatch
 10
0.0
 20
0.0
 30
0.0
210
0.0
220
0.0
230
1.0
  2
ANSI31
 70
     0
 71
     1
 91
        8
 92
        7
 72
     1
 73
     1
 93
        3
 10
27.0511773466751
 20
12.62553361261087
 42
0.5910236091927356
 10
26.94542714501647
 20
12.5673204437359
 42
0.1428286307838971
 10
26.95622615517772
 20
12.53028756698007
 42
0.0
 97
        1
330
5969
 92
        7
 72
     1
 73
     1
 93
        4
 10
27.07242341044577
 20
12.60435332049172
 42
0.1101785948493383
 10
27.0511773466751
 20
12.62553361261087
 42
0.0
 10
26.95622615517772
 20
12.53028756698007
 42
0.1101785948493478
 10
26.97747221894839
 20
12.50910727486092
 42
0.0
 97
        1
330
5969
 92
        7
 72
     1
 73
     1
 93
        3
 10
27.08322242060702
 20
12.5673204437359
 42
0.1428286307838905
 10
27.07242341044577
 20
12.60435332049172
 42
0.0
 10
26.97747221894839
 20
12.50910727486092
 42
0.5910236091927126
 97
        1
330
5969
 92
        7
 72
     1
 73
     1
 93
        3
 10
26.94542714501647
 20
12.3673204437359
 42
0.1428286307838971
 10
26.95622615517772
 20
12.33028756698008
 42
0.0
 10
27.0511773466751
 20
12.42553361261088
 42
0.5910236091927356
 97
        1
330
5969
 92
        7
 72
     1
 73
     1
 93
        4
 10
27.0511773466751
 20
12.42553361261088
 42
0.0
 10
26.95622615517772
 20
12.33028756698008
 42
0.1101785948493478
 10
26.97747221894839
 20
12.30910727486093
 42
0.0
 10
27.07242341044577
 20
12.40435332049172
 42
0.1101785948493383
 97
        1
330
5969
 92
        7
 72
     1
 73
     1
 93
        3
 10
27.08322242060702
 20
12.3673204437359
 42
0.1428286307838905
 10
27.07242341044577
 20
12.40435332049172
 42
0.0
 10
26.97747221894839
 20
12.30910727486093
 42
0.5910236091927126
 97
        1
330
5969
 92
        7
 72
     0
 73
     1
 93
        4
 10
27.20804092542416
 20
12.42637562343868
 10
27.11982124787874
 20
12.42637562343868
 10
27.11982124787874
 20
12.31220236904452
 10
27.20804092542416
 20
12.31220236904452
 97
        1
330
5969
 92
        7
 72
     0
 73
     1
 93
        4
 10
27.20804092542416
 20
12.62637553302266
 10
27.11982124787874
 20
12.62637553302266
 10
27.11982124787874
 20
12.51220235196099
 10
27.20804092542416
 20
12.51220235196099
 97
        1
330
5969
 75
     0
 76
     1
 52
0.0
 41
0.03
 77
     0
 78
     1
 53
45.0
 43
0.0
 44
0.0
 45
-0.0026516504294496
 46
0.0026516504294496
 79
     0
 47
0.000561
 98
        8
 10
27.007889
 20
12.603082
 10
27.030345
 20
12.584006
 10
27.0528
 20
12.549783
 10
27.025854
 20
12.426355
 10
27.04887
 20
12.405035
 10
27.060659
 20
12.365763
 10
27.162271
 20
12.388765
 10
27.1662
 20
12.557638
  0
ENDSEC
  0
SECTION
  2
OBJECTS
  0
DICTIONARY
  5
C
100
AcDbDictionary
  3
ACAD_GROUP
350
D
  3
ACAD_MLINESTYLE
350
E
  3
ACDBVARIABLEDICTIONARY
350
4AFA
  0
DICTIONARY
  5
D
102
{ACAD_REACTORS
330
C
102
}
100
AcDbDictionary
  0
DICTIONARY
  5
E
102
{ACAD_REACTORS
330
C
102
}
100
AcDbDictionary
  3
STANDARD
350
1B
  0
DICTIONARY
  5
4AFA
102
{ACAD_REACTORS
330
C
102
}
100
AcDbDictionary
  3
SORTENTS
350
4AFB
  0
MLINESTYLE
  5
1B
102
{ACAD_REACTORS
330
E
102
}
100
AcDbMlineStyle
  2
STANDARD
 70
     0
  3

 62
     0
 51
90.0
 52
90.0
 71
     2
 49
0.5
 62
   256
  6
BYLAYER
 49
-0.5
 62
   256
  6
BYLAYER
  0
DICTIONARYVAR
  5
4AFB
102
{ACAD_REACTORS
330
4AFA
102
}
100
DictionaryVariables
280
     0
  1
96
  0
ENDSEC
  0
EOF
