  0
SECTION
  2
HEADER
  9
$ACADVER
  1
AC1014
  9
$ACADMAINTVER
 70
     0
  9
$DWGCODEPAGE
  3
ANSI_1252
  9
$INSBASE
 10
0.0
 20
0.0
 30
0.0
  9
$EXTMIN
 10
-0.000144
 20
-0.022966
 30
-0.000305
  9
$EXTMAX
 10
21.801184
 20
16.377547
 30
5.000305
  9
$LIMMIN
 10
0.0
 20
0.0
  9
$LIMMAX
 10
12.0
 20
9.0
  9
$ORTHOMODE
 70
     1
  9
$REGENMODE
 70
     1
  9
$FILLMODE
 70
     1
  9
$QTEXTMODE
 70
     0
  9
$MIRRTEXT
 70
     0
  9
$DRAGMODE
 70
     2
  9
$LTSCALE
 40
0.5
  9
$OSMODE
 70
     0
  9
$ATTMODE
 70
     1
  9
$TEXTSIZE
 40
0.1
  9
$TRACEWID
 40
0.05
  9
$TEXTSTYLE
  7
ROMANS
  9
$CLAYER
  8
0
  9
$CELTYPE
  6
BYLAYER
  9
$CECOLOR
 62
   256
  9
$CELTSCALE
 40
1.0
  9
$DELOBJ
 70
     1
  9
$DISPSILH
 70
     0
  9
$DIMSCALE
 40
1.0
  9
$DIMASZ
 40
0.18
  9
$DIMEXO
 40
0.0625
  9
$DIMDLI
 40
0.38
  9
$DIMRND
 40
0.0
  9
$DIMDLE
 40
0.0
  9
$DIMEXE
 40
0.18
  9
$DIMTP
 40
0.0
  9
$DIMTM
 40
0.0
  9
$DIMTXT
 40
0.18
  9
$DIMCEN
 40
0.09
  9
$DIMTSZ
 40
0.0
  9
$DIMTOL
 70
     0
  9
$DIMLIM
 70
     0
  9
$DIMTIH
 70
     1
  9
$DIMTOH
 70
     1
  9
$DIMSE1
 70
     0
  9
$DIMSE2
 70
     0
  9
$DIMTAD
 70
     0
  9
$DIMZIN
 70
     0
  9
$DIMBLK
  1

  9
$DIMASO
 70
     1
  9
$DIMSHO
 70
     0
  9
$DIMPOST
  1

  9
$DIMAPOST
  1

  9
$DIMALT
 70
     0
  9
$DIMALTD
 70
     2
  9
$DIMALTF
 40
25.4
  9
$DIMLFAC
 40
1.0
  9
$DIMTOFL
 70
     0
  9
$DIMTVP
 40
0.0
  9
$DIMTIX
 70
     0
  9
$DIMSOXD
 70
     0
  9
$DIMSAH
 70
     0
  9
$DIMBLK1
  1

  9
$DIMBLK2
  1

  9
$DIMSTYLE
  2
STANDARD
  9
$DIMCLRD
 70
     0
  9
$DIMCLRE
 70
     0
  9
$DIMCLRT
 70
     0
  9
$DIMTFAC
 40
1.0
  9
$DIMGAP
 40
0.09
  9
$DIMJUST
 70
     0
  9
$DIMSD1
 70
     0
  9
$DIMSD2
 70
     0
  9
$DIMTOLJ
 70
     1
  9
$DIMTZIN
 70
     0
  9
$DIMALTZ
 70
     0
  9
$DIMALTTZ
 70
     0
  9
$DIMFIT
 70
     3
  9
$DIMUPT
 70
     0
  9
$DIMUNIT
 70
     2
  9
$DIMDEC
 70
     4
  9
$DIMTDEC
 70
     4
  9
$DIMALTU
 70
     2
  9
$DIMALTTD
 70
     2
  9
$DIMTXSTY
  7
STANDARD
  9
$DIMAUNIT
 70
     0
  9
$LUNITS
 70
     2
  9
$LUPREC
 70
     4
  9
$SKETCHINC
 40
0.1
  9
$FILLETRAD
 40
0.0
  9
$AUNITS
 70
     0
  9
$AUPREC
 70
     0
  9
$MENU
  1
ACAD
  9
$ELEVATION
 40
0.0
  9
$PELEVATION
 40
0.0
  9
$THICKNESS
 40
0.0
  9
$LIMCHECK
 70
     0
  9
$BLIPMODE
 70
     1
  9
$CHAMFERA
 40
0.0
  9
$CHAMFERB
 40
0.0
  9
$CHAMFERC
 40
0.0
  9
$CHAMFERD
 40
0.0
  9
$SKPOLY
 70
     0
  9
$TDCREATE
 40
2450123.372815624
  9
$TDUPDATE
 40
2454902.678830682
  9
$TDINDWG
 40
0.6777209606
  9
$TDUSRTIMER
 40
0.6777209606
  9
$USRTIMER
 70
     1
  9
$ANGBASE
 50
0.0
  9
$ANGDIR
 70
     0
  9
$PDMODE
 70
     0
  9
$PDSIZE
 40
0.0
  9
$PLINEWID
 40
0.06
  9
$COORDS
 70
     2
  9
$SPLFRAME
 70
     0
  9
$SPLINETYPE
 70
     6
  9
$SPLINESEGS
 70
     8
  9
$ATTDIA
 70
     0
  9
$ATTREQ
 70
     1
  9
$HANDLING
 70
     1
  9
$HANDSEED
  5
10BA
  9
$SURFTAB1
 70
     6
  9
$SURFTAB2
 70
     6
  9
$SURFTYPE
 70
     6
  9
$SURFU
 70
     6
  9
$SURFV
 70
     6
  9
$UCSNAME
  2

  9
$UCSORG
 10
0.0
 20
0.0
 30
0.0
  9
$UCSXDIR
 10
1.0
 20
0.0
 30
0.0
  9
$UCSYDIR
 10
0.0
 20
1.0
 30
0.0
  9
$PUCSNAME
  2

  9
$PUCSORG
 10
0.0
 20
0.0
 30
0.0
  9
$PUCSXDIR
 10
1.0
 20
0.0
 30
0.0
  9
$PUCSYDIR
 10
0.0
 20
1.0
 30
0.0
  9
$USERI1
 70
     0
  9
$USERI2
 70
     0
  9
$USERI3
 70
     0
  9
$USERI4
 70
     0
  9
$USERI5
 70
     0
  9
$USERR1
 40
0.0
  9
$USERR2
 40
0.0
  9
$USERR3
 40
0.0
  9
$USERR4
 40
0.0
  9
$USERR5
 40
0.0
  9
$WORLDVIEW
 70
     1
  9
$SHADEDGE
 70
     3
  9
$SHADEDIF
 70
    70
  9
$TILEMODE
 70
     1
  9
$MAXACTVP
 70
    16
  9
$PINSBASE
 10
0.0
 20
0.0
 30
0.0
  9
$PLIMCHECK
 70
     0
  9
$PEXTMIN
 10
1.000000E+20
 20
1.000000E+20
 30
1.000000E+20
  9
$PEXTMAX
 10
-1.000000E+20
 20
-1.000000E+20
 30
-1.000000E+20
  9
$PLIMMIN
 10
0.0
 20
0.0
  9
$PLIMMAX
 10
12.0
 20
9.0
  9
$UNITMODE
 70
     0
  9
$VISRETAIN
 70
     0
  9
$PLINEGEN
 70
     0
  9
$PSLTSCALE
 70
     0
  9
$TREEDEPTH
 70
  3020
  9
$PICKSTYLE
 70
     1
  9
$CMLSTYLE
  2
STANDARD
  9
$CMLJUST
 70
     0
  9
$CMLSCALE
 40
1.0
  9
$PROXYGRAPHICS
 70
     1
  9
$MEASUREMENT
 70
     0
  0
ENDSEC
  0
SECTION
  2
CLASSES
  0
CLASS
  1
LWPOLYLINE
  2
AcDbPolyline
  3
"AutoCAD"
 90
        0
280
     0
281
     1
  0
CLASS
  1
HATCH
  2
AcDbHatch
  3
"ACAD_SEDONA"
 90
        0
280
     0
281
     1
  0
ENDSEC
  0
SECTION
  2
TABLES
  0
TABLE
  2
VPORT
  5
8
100
AcDbSymbolTable
 70
    10
  0
VPORT
  5
10B9
100
AcDbSymbolTableRecord
100
AcDbViewportTableRecord
  2
*ACTIVE
 70
     0
 10
0.0
 20
0.0
 11
1.0
 21
1.0
 12
10.90052
 22
8.177291
 13
0.0
 23
0.0
 14
0.025
 24
0.025
 15
0.0
 25
0.0
 16
0.0
 26
0.0
 36
1.0
 17
0.0
 27
0.0
 37
0.0
 40
16.523364
 41
1.4275
 42
50.0
 43
0.0
 44
0.0
 50
0.0
 51
0.0
 71
     0
 72
   100
 73
     1
 74
     0
 75
     0
 76
     0
 77
     0
 78
     0
  0
ENDTAB
  0
TABLE
  2
LTYPE
  5
5
100
AcDbSymbolTable
 70
     1
  0
LTYPE
  5
12
100
AcDbSymbolTableRecord
100
AcDbLinetypeTableRecord
  2
BYBLOCK
 70
     0
  3

 72
    65
 73
     0
 40
0.0
  0
LTYPE
  5
13
100
AcDbSymbolTableRecord
100
AcDbLinetypeTableRecord
  2
BYLAYER
 70
     0
  3

 72
    65
 73
     0
 40
0.0
  0
LTYPE
  5
14
100
AcDbSymbolTableRecord
100
AcDbLinetypeTableRecord
  2
CONTINUOUS
 70
     0
  3
Solid line
 72
    65
 73
     0
 40
0.0
  0
ENDTAB
  0
TABLE
  2
LAYER
  5
2
100
AcDbSymbolTable
 70
     9
  0
LAYER
  5
F
100
AcDbSymbolTableRecord
100
AcDbLayerTableRecord
  2
0
 70
     0
 62
     7
  6
CONTINUOUS
  0
LAYER
  5
31
100
AcDbSymbolTableRecord
100
AcDbLayerTableRecord
  2
BORDER
 70
     0
 62
     4
  6
CONTINUOUS
  0
LAYER
  5
37
100
AcDbSymbolTableRecord
100
AcDbLayerTableRecord
  2
DIM
 70
     0
 62
     7
  6
CONTINUOUS
  0
LAYER
  5
4AA
100
AcDbSymbolTableRecord
100
AcDbLayerTableRecord
  2
1
 70
     0
 62
     7
  6
CONTINUOUS
  0
LAYER
  5
9D9
100
AcDbSymbolTableRecord
100
AcDbLayerTableRecord
  2
ART
 70
     0
 62
     7
  6
CONTINUOUS
  0
LAYER
  5
107B
100
AcDbSymbolTableRecord
100
AcDbLayerTableRecord
  2
TEXT
 70
     0
 62
     7
  6
CONTINUOUS
  0
LAYER
  5
107C
100
AcDbSymbolTableRecord
100
AcDbLayerTableRecord
  2
PARTS
 70
     0
 62
     7
  6
CONTINUOUS
  0
LAYER
  5
107D
100
AcDbSymbolTableRecord
100
AcDbLayerTableRecord
  2
PANEL
 70
     0
 62
     7
  6
CONTINUOUS
  0
LAYER
  5
108A
100
AcDbSymbolTableRecord
100
AcDbLayerTableRecord
  2
ARTWORK
 70
     0
 62
     7
  6
CONTINUOUS
  0
ENDTAB
  0
TABLE
  2
STYLE
  5
3
100
AcDbSymbolTable
 70
     7
  0
STYLE
  5
10
100
AcDbSymbolTableRecord
100
AcDbTextStyleTableRecord
  2
STANDARD
 70
     0
 40
0.0
 41
1.0
 50
0.0
 71
     0
 42
0.1
  3
ROMANS
  4

  0
STYLE
  5
2A
100
AcDbSymbolTableRecord
100
AcDbTextStyleTableRecord
  2
HVLS
 70
     0
 40
0.1
 41
0.85
 50
0.0
 71
     0
 42
0.1
  3
HVLS.shx
  4

  0
STYLE
  5
2B
100
AcDbSymbolTableRecord
100
AcDbTextStyleTableRecord
  2
SIM1
 70
     0
 40
0.0
 41
1.0
 50
0.0
 71
     0
 42
0.125
  3
SIMPLEX
  4

  0
STYLE
  5
2C
100
AcDbSymbolTableRecord
100
AcDbTextStyleTableRecord
  2
COM2
 70
     0
 40
0.18
 41
0.6
 50
0.0
 71
     0
 42
0.18
  3
COMPLEX
  4

  0
STYLE
  5
2E
100
AcDbSymbolTableRecord
100
AcDbTextStyleTableRecord
  2
ROMANS
 70
     0
 40
0.0
 41
1.0
 50
0.0
 71
     0
 42
0.1
  3
ROMANS
  4

  0
STYLE
  5
9DC
100
AcDbSymbolTableRecord
100
AcDbTextStyleTableRecord
  2
HL-LD
 70
     0
 40
0.0
 41
1.0
 50
0.0
 71
     0
 42
0.09
  3
HL-LD
  4

  0
STYLE
  5
108B
100
AcDbSymbolTableRecord
100
AcDbTextStyleTableRecord
  2
DENMARK
 70
     0
 40
1.0
 41
1.0
 50
0.0
 71
     0
 42
1.0
  3
Denmark
  4

  0
ENDTAB
  0
TABLE
  2
VIEW
  5
6
100
AcDbSymbolTable
 70
     0
  0
ENDTAB
  0
TABLE
  2
UCS
  5
7
100
AcDbSymbolTable
 70
     0
  0
ENDTAB
  0
TABLE
  2
APPID
  5
9
100
AcDbSymbolTable
 70
     1
  0
APPID
  5
11
100
AcDbSymbolTableRecord
100
AcDbRegAppTableRecord
  2
ACAD
 70
     0
  0
ENDTAB
  0
TABLE
  2
DIMSTYLE
  5
A
100
AcDbSymbolTable
 70
     1
  0
DIMSTYLE
105
4A0
100
AcDbSymbolTableRecord
100
AcDbDimStyleTableRecord
  2
STANDARD
 70
     0
  3

  4

  5

  6

  7

 40
1.0
 41
0.18
 42
0.0625
 43
0.38
 44
0.18
 45
0.0
 46
0.0
 47
0.0
 48
0.0
140
0.18
141
0.09
142
0.0
143
25.4
144
1.0
145
0.0
146
1.0
147
0.09
 71
     0
 72
     0
 73
     1
 74
     1
 75
     0
 76
     0
 77
     0
 78
     0
170
     0
171
     2
172
     0
173
     0
174
     0
175
     0
176
     0
177
     0
178
     0
270
     2
271
     4
272
     4
273
     2
274
     2
340
10
275
     0
280
     0
281
     0
282
     0
283
     1
284
     0
285
     0
286
     0
287
     3
288
     0
  0
ENDTAB
  0
TABLE
  2
BLOCK_RECORD
  5
1
100
AcDbSymbolTable
 70
     2
  0
BLOCK_RECORD
  5
18
100
AcDbSymbolTableRecord
100
AcDbBlockTableRecord
  2
*MODEL_SPACE
  0
BLOCK_RECORD
  5
15
100
AcDbSymbolTableRecord
100
AcDbBlockTableRecord
  2
*PAPER_SPACE
  0
BLOCK_RECORD
  5
1C
100
AcDbSymbolTableRecord
100
AcDbBlockTableRecord
  2
CSHEET
  0
BLOCK_RECORD
  5
108C
100
AcDbSymbolTableRecord
100
AcDbBlockTableRecord
  2
TMPOVLA
  0
ENDTAB
  0
ENDSEC
  0
SECTION
  2
BLOCKS
  0
BLOCK
  5
3A
100
AcDbEntity
  8
0
100
AcDbBlockBegin
  2
*MODEL_SPACE
 70
     0
 10
0.0
 20
0.0
 30
0.0
  3
*MODEL_SPACE
  1

  0
ENDBLK
  5
3B
100
AcDbEntity
  8
0
100
AcDbBlockEnd
  0
BLOCK
  5
38
100
AcDbEntity
 67
     1
  8
0
100
AcDbBlockBegin
  2
*PAPER_SPACE
 70
     0
 10
0.0
 20
0.0
 30
0.0
  3
*PAPER_SPACE
  1

  0
ENDBLK
  5
39
100
AcDbEntity
 67
     1
  8
0
100
AcDbBlockEnd
  0
BLOCK
  5
3C
100
AcDbEntity
  8
0
100
AcDbBlockBegin
  2
CSHEET
 70
     0
 10
0.0
 20
0.0
 30
0.0
  3
CSHEET
  1

  0
LWPOLYLINE
  5
3D
100
AcDbEntity
  8
BORDER
100
AcDbPolyline
 90
        4
 70
     1
 43
0.03
 10
-29.483855
 20
-9.102974
 10
-8.483855
 20
-9.102974
 10
-8.483855
 20
6.397026
 10
-29.483855
 20
6.397026
  0
LWPOLYLINE
  5
43
100
AcDbEntity
  8
BORDER
100
AcDbPolyline
 90
        2
 70
     0
 10
-18.983855
 20
-9.116576
 40
0.0
 41
0.2
 10
-18.983855
 20
-9.316576
 40
0.2
 41
0.2
  0
LWPOLYLINE
  5
47
100
AcDbEntity
  8
BORDER
100
AcDbPolyline
 90
        2
 70
     0
 43
0.015
 10
-24.483855
 20
-9.102974
 10
-24.483855
 20
-9.502974
  0
TEXT
  5
4B
100
AcDbEntity
  8
BORDER
100
AcDbText
 10
-27.312426
 20
-9.552974
 30
0.0
 40
0.2
  1
4
 41
1.1
  7
SIM1
 72
     4
 11
-27.233855
 21
-9.452974
 31
0.0
100
AcDbText
  0
TEXT
  5
4C
100
AcDbEntity
  8
BORDER
100
AcDbText
 10
-21.807188
 20
-9.552974
 30
0.0
 40
0.2
  1
3
 41
1.1
  7
SIM1
 72
     4
 11
-21.733855
 21
-9.452974
 31
0.0
100
AcDbText
  0
TEXT
  5
4D
100
AcDbEntity
  8
BORDER
100
AcDbText
 10
-16.307188
 20
-9.552974
 30
0.0
 40
0.2
  1
2
 41
1.1
  7
SIM1
 72
     4
 11
-16.233855
 21
-9.452974
 31
0.0
100
AcDbText
  0
TEXT
  5
4E
100
AcDbEntity
  8
BORDER
100
AcDbText
 10
-10.760045
 20
-9.552974
 30
0.0
 40
0.2
  1
1
 41
1.1
  7
SIM1
 72
     4
 11
-10.733855
 21
-9.452974
 31
0.0
100
AcDbText
  0
TEXT
  5
4F
100
AcDbEntity
  8
BORDER
100
AcDbText
 10
-27.312426
 20
6.647026
 30
0.0
 40
0.2
  1
4
 41
1.1
  7
SIM1
 72
     4
 11
-27.233855
 21
6.747026
 31
0.0
100
AcDbText
  0
LWPOLYLINE
  5
50
100
AcDbEntity
  8
BORDER
100
AcDbPolyline
 90
        2
 70
     0
 43
0.015
 10
-24.483855
 20
6.797026
 10
-24.483855
 20
6.397026
  0
TEXT
  5
54
100
AcDbEntity
  8
BORDER
100
AcDbText
 10
-21.807188
 20
6.647026
 30
0.0
 40
0.2
  1
3
 41
1.1
  7
SIM1
 72
     4
 11
-21.733855
 21
6.747026
 31
0.0
100
AcDbText
  0
TEXT
  5
55
100
AcDbEntity
  8
BORDER
100
AcDbText
 10
-16.307188
 20
6.647026
 30
0.0
 40
0.2
  1
2
 41
1.1
  7
SIM1
 72
     4
 11
-16.233855
 21
6.747026
 31
0.0
100
AcDbText
  0
TEXT
  5
56
100
AcDbEntity
  8
BORDER
100
AcDbText
 10
-10.760045
 20
6.647026
 30
0.0
 40
0.2
  1
1
 41
1.1
  7
SIM1
 72
     4
 11
-10.733855
 21
6.747026
 31
0.0
100
AcDbText
  0
LWPOLYLINE
  5
57
100
AcDbEntity
  8
BORDER
100
AcDbPolyline
 90
        2
 70
     0
 43
0.015
 10
-8.483855
 20
2.897026
 10
-8.083855
 20
2.897026
  0
LWPOLYLINE
  5
5B
100
AcDbEntity
  8
BORDER
100
AcDbPolyline
 90
        2
 70
     0
 10
-18.983855
 20
6.411344
 40
0.0
 41
0.2
 10
-18.983855
 20
6.611344
 40
0.2
 41
0.2
  0
TEXT
  5
5F
100
AcDbEntity
  8
BORDER
100
AcDbText
 10
-8.307188
 20
4.897026
 30
0.0
 40
0.2
  1
D
 41
1.1
  7
SIM1
 72
     4
 11
-8.233855
 21
4.997026
 31
0.0
100
AcDbText
  0
TEXT
  5
60
100
AcDbEntity
  8
BORDER
100
AcDbText
 10
-8.312426
 20
0.647026
 30
0.0
 40
0.2
  1
C
 41
1.1
  7
SIM1
 72
     4
 11
-8.233855
 21
0.747026
 31
0.0
100
AcDbText
  0
LWPOLYLINE
  5
61
100
AcDbEntity
  8
BORDER
100
AcDbPolyline
 90
        2
 70
     0
 43
0.015
 10
-8.483855
 20
-5.602974
 10
-8.083855
 20
-5.602974
  0
TEXT
  5
65
100
AcDbEntity
  8
BORDER
100
AcDbText
 10
-8.307188
 20
-3.602974
 30
0.0
 40
0.2
  1
B
 41
1.1
  7
SIM1
 72
     4
 11
-8.233855
 21
-3.502974
 31
0.0
100
AcDbText
  0
TEXT
  5
66
100
AcDbEntity
  8
BORDER
100
AcDbText
 10
-8.317664
 20
-7.852974
 30
0.0
 40
0.2
  1
A
 41
1.1
  7
SIM1
 72
     4
 11
-8.233855
 21
-7.752974
 31
0.0
100
AcDbText
  0
TEXT
  5
67
100
AcDbEntity
  8
BORDER
100
AcDbText
 10
-29.817664
 20
-7.852974
 30
0.0
 40
0.2
  1
A
 41
1.1
  7
SIM1
 72
     4
 11
-29.733855
 21
-7.752974
 31
0.0
100
AcDbText
  0
LWPOLYLINE
  5
68
100
AcDbEntity
  8
BORDER
100
AcDbPolyline
 90
        2
 70
     0
 43
0.015
 10
-29.883855
 20
-5.602974
 10
-29.483855
 20
-5.602974
  0
TEXT
  5
6C
100
AcDbEntity
  8
BORDER
100
AcDbText
 10
-29.807188
 20
-3.602974
 30
0.0
 40
0.2
  1
B
 41
1.1
  7
SIM1
 72
     4
 11
-29.733855
 21
-3.502974
 31
0.0
100
AcDbText
  0
TEXT
  5
6D
100
AcDbEntity
  8
BORDER
100
AcDbText
 10
-29.812426
 20
0.647026
 30
0.0
 40
0.2
  1
C
 41
1.1
  7
SIM1
 72
     4
 11
-29.733855
 21
0.747026
 31
0.0
100
AcDbText
  0
LWPOLYLINE
  5
6E
100
AcDbEntity
  8
BORDER
100
AcDbPolyline
 90
        2
 70
     0
 43
0.015
 10
-29.883855
 20
2.897026
 10
-29.483855
 20
2.897026
  0
TEXT
  5
72
100
AcDbEntity
  8
BORDER
100
AcDbText
 10
-29.807188
 20
4.897026
 30
0.0
 40
0.2
  1
D
 41
1.1
  7
SIM1
 72
     4
 11
-29.733855
 21
4.997026
 31
0.0
100
AcDbText
  0
LWPOLYLINE
  5
73
100
AcDbEntity
  8
BORDER
100
AcDbPolyline
 90
        2
 70
     0
 10
-29.498172
 20
-1.352974
 40
0.0
 41
0.2
 10
-29.698172
 20
-1.352974
 40
0.2
 41
0.2
  0
LWPOLYLINE
  5
77
100
AcDbEntity
  8
BORDER
100
AcDbPolyline
 90
        2
 70
     0
 43
0.015
 10
-13.483855
 20
-9.102974
 10
-13.483855
 20
-9.502974
  0
LWPOLYLINE
  5
7B
100
AcDbEntity
  8
BORDER
100
AcDbPolyline
 90
        2
 70
     0
 43
0.015
 10
-13.483855
 20
6.797026
 10
-13.483855
 20
6.397026
  0
TEXT
  5
7F
100
AcDbEntity
  8
BORDER
100
AcDbText
 10
-14.67364
 20
-8.695605
 30
0.0
 40
0.0615
  1
Control Technology Inc. ("CTI") and may not be
 41
1.4596
  7
SIM1
 72
     5
 11
-11.322399
 21
-8.695605
 31
0.0
100
AcDbText
  0
TEXT
  5
80
100
AcDbEntity
  8
BORDER
100
AcDbText
 10
-11.759828
 20
-8.152816
 30
0.0
 40
0.055
  1
DATE
 41
1.15
  7
SIM1
100
AcDbText
  0
TEXT
  5
81
100
AcDbEntity
  8
BORDER
100
AcDbText
 10
-11.759828
 20
-7.887849
 30
0.0
 40
0.055
  1
DATE
 41
1.15
  7
SIM1
100
AcDbText
  0
TEXT
  5
82
100
AcDbEntity
  8
BORDER
100
AcDbText
 10
-11.763042
 20
-7.626811
 30
0.0
 40
0.055
  1
DATE
 41
1.15
  7
SIM1
100
AcDbText
  0
TEXT
  5
83
100
AcDbEntity
  8
BORDER
100
AcDbText
 10
-11.763042
 20
-7.364701
 30
0.0
 40
0.055
  1
DATE
 41
1.15
  7
SIM1
100
AcDbText
  0
TEXT
  5
84
100
AcDbEntity
  8
BORDER
100
AcDbText
 10
-11.763042
 20
-7.109733
 30
0.0
 40
0.055
  1
DATE
 41
1.15
  7
SIM1
100
AcDbText
  0
TEXT
  5
85
100
AcDbEntity
  8
BORDER
100
AcDbText
 10
-12.745739
 20
-8.155315
 30
0.0
 40
0.055
  1
RELEASED
 41
1.15
  7
SIM1
100
AcDbText
  0
TEXT
  5
86
100
AcDbEntity
  8
BORDER
100
AcDbText
 10
-12.745739
 20
-7.889635
 30
0.0
 40
0.055
  1
ENG.
 41
1.15
  7
SIM1
100
AcDbText
  0
TEXT
  5
87
100
AcDbEntity
  8
BORDER
100
AcDbText
 10
-12.745739
 20
-7.627525
 30
0.0
 40
0.055
  1
MFG.
 41
1.15
  7
SIM1
100
AcDbText
  0
TEXT
  5
88
100
AcDbEntity
  8
BORDER
100
AcDbText
 10
-12.745739
 20
-7.363987
 30
0.0
 40
0.055
  1
CHECKED
 41
1.15
  7
SIM1
100
AcDbText
  0
TEXT
  5
89
100
AcDbEntity
  8
BORDER
100
AcDbText
 10
-12.745739
 20
-7.10759
 30
0.0
 40
0.055
  1
DRAWN
 41
1.15
  7
SIM1
100
AcDbText
  0
LINE
  5
8A
100
AcDbEntity
  8
BORDER
100
AcDbLine
 10
-8.481075
 20
5.231763
 30
0.0
 11
-14.733273
 21
5.231763
 31
0.0
  0
LINE
  5
8B
100
AcDbEntity
  8
BORDER
100
AcDbLine
 10
-14.733855
 20
5.481018
 30
0.0
 11
-8.481075
 21
5.481018
 31
0.0
  0
TEXT
  5
8C
100
AcDbEntity
  8
BORDER
100
AcDbText
 10
-14.629407
 20
-9.039635
 30
0.0
 40
0.0615
  1
c
 41
1.1
  7
SIM1
 72
     4
 11
-14.610079
 21
-9.019135
 31
0.0
100
AcDbText
  0
CIRCLE
  5
8D
100
AcDbEntity
  8
BORDER
100
AcDbCircle
 10
-14.610364
 20
-9.019421
 30
0.0
 40
0.039422
  0
LWPOLYLINE
  5
8E
100
AcDbEntity
  8
BORDER
100
AcDbPolyline
 90
        2
 70
     0
 43
0.024606
 10
-12.789957
 20
-6.847449
 10
-12.789957
 20
-8.323151
  0
TEXT
  5
92
100
AcDbEntity
  8
BORDER
100
AcDbText
 10
-14.527569
 20
-9.044158
 30
0.0
 40
0.0615
  1
19    CTI. All Rights Reserved. An unpublished work.
 41
1.25
  7
SIM1
100
AcDbText
  0
LINE
  5
93
100
AcDbEntity
  8
BORDER
100
AcDbLine
 10
-14.393662
 20
-9.056657
 30
0.0
 11
-14.174055
 21
-9.056657
 31
0.0
  0
TEXT
  5
94
100
AcDbEntity
  8
BORDER
100
AcDbText
 10
-14.67683
 20
-8.898462
 30
0.0
 40
0.0615
  1
without the prior written consent of CTI.
 41
1.371177
  7
SIM1
 72
     5
 11
-12.010478
 21
-8.898462
 31
0.0
100
AcDbText
  0
TEXT
  5
95
100
AcDbEntity
  8
BORDER
100
AcDbText
 10
-14.67683
 20
-8.797047
 30
0.0
 40
0.0615
  1
reproduced, copied, used, or disclosed to others
 41
1.438944
  7
SIM1
 72
     5
 11
-11.326661
 21
-8.797047
 31
0.0
100
AcDbText
  0
TEXT
  5
96
100
AcDbEntity
  8
BORDER
100
AcDbText
 10
-14.67683
 20
-8.594215
 30
0.0
 40
0.0615
  1
This drawing is the property of and proprietary to
 41
1.38494
  7
SIM1
 72
     5
 11
-11.326661
 21
-8.594215
 31
0.0
100
AcDbText
  0
TEXT
  5
97
100
AcDbEntity
  8
BORDER
100
AcDbText
 10
-14.168343
 20
-8.440306
 30
0.0
 40
0.07
  1
CONFIDENTIAL AND PROPRIETARY
 41
1.25
  7
SIM1
 72
     1
 11
-13.062093
 21
-8.440306
 31
0.0
100
AcDbText
  0
TEXT
  5
98
100
AcDbEntity
  8
BORDER
100
AcDbText
 10
-9.279029
 20
5.817767
 30
0.0
 40
0.082
  1
DFT./DATE
 41
1.1
  7
SIM1
100
AcDbText
  0
LWPOLYLINE
  5
99
100
AcDbEntity
  8
BORDER
100
AcDbPolyline
 90
        3
 70
     0
 43
0.015
 10
-14.733855
 20
6.397026
 10
-8.483855
 20
6.397026
 10
-8.483855
 20
5.747026
  0
LWPOLYLINE
  5
9E
100
AcDbEntity
  8
BORDER
100
AcDbPolyline
 90
        2
 70
     0
 43
0.024606
 10
-14.733855
 20
5.986951
 10
-14.733855
 20
6.397026
  0
LWPOLYLINE
  5
A2
100
AcDbEntity
  8
BORDER
100
AcDbPolyline
 90
        2
 70
     0
 43
0.024606
 10
-8.483855
 20
5.986951
 10
-14.733855
 20
5.986951
  0
LWPOLYLINE
  5
A6
100
AcDbEntity
  8
BORDER
100
AcDbPolyline
 90
        2
 70
     0
 43
0.024606
 10
-8.483855
 20
5.740858
 10
-14.733855
 20
5.740858
  0
TEXT
  5
AA
100
AcDbEntity
  8
BORDER
100
AcDbText
 10
-12.256943
 20
6.111391
 30
0.0
 40
0.164042
  1
REVISIONS
 41
1.25
  7
SIM1
 72
     4
 11
-11.505084
 21
6.193412
 31
0.0
100
AcDbText
  0
TEXT
  5
AB
100
AcDbEntity
  8
BORDER
100
AcDbText
 10
-14.687347
 20
5.82304
 30
0.0
 40
0.082021
  1
REV.
 41
1.1
  7
SIM1
100
AcDbText
  0
TEXT
  5
AC
100
AcDbEntity
  8
BORDER
100
AcDbText
 10
-14.28392
 20
5.822149
 30
0.0
 40
0.082021
  1
ECO NO.
 41
1.1
  7
SIM1
100
AcDbText
  0
TEXT
  5
AD
100
AcDbEntity
  8
BORDER
100
AcDbText
 10
-12.408221
 20
5.824531
 30
0.0
 40
0.082021
  1
DESCRIPTION
 41
1.1
  7
SIM1
100
AcDbText
  0
TEXT
  5
AE
100
AcDbEntity
  8
BORDER
100
AcDbText
 10
-10.216817
 20
5.816528
 30
0.0
 40
0.082021
  1
ENG./DATE
 41
1.1
  7
SIM1
100
AcDbText
  0
LWPOLYLINE
  5
AF
100
AcDbEntity
  8
BORDER
100
AcDbPolyline
 90
        2
 70
     0
 43
0.024606
 10
-9.388054
 20
5.986921
 10
-9.388054
 20
5.740858
  0
LWPOLYLINE
  5
B3
100
AcDbEntity
  8
BORDER
100
AcDbPolyline
 90
        2
 70
     0
 43
0.024606
 10
-10.333264
 20
5.986921
 10
-10.333264
 20
5.740858
  0
LWPOLYLINE
  5
B7
100
AcDbEntity
  8
BORDER
100
AcDbPolyline
 90
        2
 70
     0
 43
0.024606
 10
-14.733855
 20
5.986951
 10
-14.733855
 20
5.728598
  0
LWPOLYLINE
  5
BB
100
AcDbEntity
  8
BORDER
100
AcDbPolyline
 90
        2
 70
     0
 43
0.024606
 10
-14.389366
 20
5.986921
 10
-14.389366
 20
5.740858
  0
LWPOLYLINE
  5
BF
100
AcDbEntity
  8
BORDER
100
AcDbPolyline
 90
        2
 70
     0
 43
0.024606
 10
-13.641125
 20
5.986921
 10
-13.641125
 20
5.740858
  0
LWPOLYLINE
  5
C3
100
AcDbEntity
  8
BORDER
100
AcDbPolyline
 90
        2
 70
     0
 43
0.012303
 10
-14.728264
 20
-8.118774
 10
-12.789957
 20
-8.118774
  0
LWPOLYLINE
  5
C7
100
AcDbEntity
  8
BORDER
100
AcDbPolyline
 90
        2
 70
     0
 43
0.024606
 10
-11.272569
 20
-8.323827
 10
-14.728264
 20
-8.323827
  0
TEXT
  5
CB
100
AcDbEntity
  8
BORDER
100
AcDbText
 10
-14.444025
 20
-8.282591
 30
0.0
 40
0.052288
  1
UNLESS OTHERWISE NOTED
 41
1.25
  7
SIM1
100
AcDbText
  0
TEXT
  5
CC
100
AcDbEntity
  8
BORDER
100
AcDbText
 10
-14.472052
 20
-8.203814
 30
0.0
 40
0.052288
  1
DIMENSIONS ARE IN INCHES
 41
1.25
  7
SIM1
100
AcDbText
  0
TEXT
  5
CD
100
AcDbEntity
  8
BORDER
100
AcDbText
 10
-13.527262
 20
-8.06816
 30
0.0
 40
0.061516
  1
+/-
 41
1.25
  7
SIM1
100
AcDbText
  0
TEXT
  5
CE
100
AcDbEntity
  8
BORDER
100
AcDbText
 10
-13.527262
 20
-7.945128
 30
0.0
 40
0.061516
  1
+/-
 41
1.25
  7
SIM1
100
AcDbText
  0
TEXT
  5
CF
100
AcDbEntity
  8
BORDER
100
AcDbText
 10
-14.619225
 20
-8.071764
 30
0.0
 40
0.061516
  1
ANGLES
 41
1.25
  7
SIM1
100
AcDbText
  0
TEXT
  5
D0
100
AcDbEntity
  8
BORDER
100
AcDbText
 10
-14.619225
 20
-7.948733
 30
0.0
 40
0.061516
  1
FRACTIONS
 41
1.25
  7
SIM1
100
AcDbText
  0
TEXT
  5
D1
100
AcDbEntity
  8
BORDER
100
AcDbText
 10
-13.922047
 20
-7.825701
 30
0.0
 40
0.061516
  1
.XXX  +/-
 41
1.25
  7
SIM1
100
AcDbText
  0
TEXT
  5
D2
100
AcDbEntity
  8
BORDER
100
AcDbText
 10
-13.922047
 20
-7.70267
 30
0.0
 40
0.061516
  1
.XX   +/-
 41
1.25
  7
SIM1
100
AcDbText
  0
TEXT
  5
D3
100
AcDbEntity
  8
BORDER
100
AcDbText
 10
-14.619225
 20
-7.579638
 30
0.0
 40
0.061516
  1
DECIMALS  .X    +/-
 41
1.25
  7
SIM1
100
AcDbText
  0
LWPOLYLINE
  5
D4
100
AcDbEntity
  8
BORDER
100
AcDbPolyline
 90
        2
 70
     0
 43
0.012303
 10
-12.800844
 20
-7.459051
 10
-14.739152
 20
-7.459051
  0
TEXT
  5
D8
100
AcDbEntity
  8
BORDER
100
AcDbText
 10
-14.134825
 20
-7.431065
 30
0.0
 40
0.061516
  1
TOLERANCES
 41
1.25
  7
SIM1
 72
     1
 11
-13.777814
 21
-7.431065
 31
0.0
100
AcDbText
  0
TEXT
  5
D9
100
AcDbEntity
  8
BORDER
100
AcDbText
 10
-14.679587
 20
-7.192656
 30
0.0
 40
0.061516
  1
FINISH
 41
1.25
  7
SIM1
100
AcDbText
  0
TEXT
  5
DA
100
AcDbEntity
  8
BORDER
100
AcDbText
 10
-14.677784
 20
-6.956061
 30
0.0
 40
0.061516
  1
MATERIAL
 41
1.25
  7
SIM1
100
AcDbText
  0
LWPOLYLINE
  5
DB
100
AcDbEntity
  8
BORDER
100
AcDbPolyline
 90
        2
 70
     0
 43
0.024606
 10
-12.789957
 20
-7.339575
 10
-14.728264
 20
-7.339575
  0
LWPOLYLINE
  5
DF
100
AcDbEntity
  8
BORDER
100
AcDbPolyline
 90
        2
 70
     0
 43
0.012303
 10
-12.789957
 20
-7.093512
 10
-14.728264
 20
-7.093512
  0
LWPOLYLINE
  5
E3
100
AcDbEntity
  8
BORDER
100
AcDbPolyline
 90
        2
 70
     0
 43
0.012303
 10
-12.789957
 20
-8.06136
 10
-11.272569
 20
-8.06136
  0
LWPOLYLINE
  5
E7
100
AcDbEntity
  8
BORDER
100
AcDbPolyline
 90
        2
 70
     0
 43
0.012303
 10
-12.789957
 20
-7.798892
 10
-11.272569
 20
-7.798892
  0
LWPOLYLINE
  5
EB
100
AcDbEntity
  8
BORDER
100
AcDbPolyline
 90
        2
 70
     0
 43
0.012303
 10
-12.789957
 20
-7.536425
 10
-11.272569
 20
-7.536425
  0
LWPOLYLINE
  5
EF
100
AcDbEntity
  8
BORDER
100
AcDbPolyline
 90
        2
 70
     0
 43
0.012303
 10
-11.806171
 20
-7.011491
 10
-11.806171
 20
-8.323827
  0
LWPOLYLINE
  5
F3
100
AcDbEntity
  8
BORDER
100
AcDbPolyline
 90
        2
 70
     0
 43
0.012303
 10
-12.789957
 20
-7.273958
 10
-11.272569
 20
-7.273958
  0
LWPOLYLINE
  5
F7
100
AcDbEntity
  8
BORDER
100
AcDbPolyline
 90
        2
 70
     0
 43
0.024606
 10
-11.272569
 20
-7.011491
 10
-12.789957
 20
-7.011491
  0
TEXT
  5
FB
100
AcDbEntity
  8
BORDER
100
AcDbText
 10
-12.381317
 20
-6.957864
 30
0.0
 40
0.061516
  1
APPROVALS
 41
1.25
  7
SIM1
 72
     1
 11
-12.051768
 21
-6.957864
 31
0.0
100
AcDbText
  0
LWPOLYLINE
  5
FC
100
AcDbEntity
  8
BORDER
100
AcDbPolyline
 90
        2
 70
     0
 43
0.012303
 10
-9.878212
 20
-8.528827
 10
-9.878212
 20
-8.159732
  0
TEXT
  5
100
100
AcDbEntity
  8
BORDER
100
AcDbText
 10
-9.809693
 20
-8.282764
 30
0.0
 40
0.061516
  1
PART NO.
 41
1.25
  7
SIM1
100
AcDbText
  0
TEXT
  5
101
100
AcDbEntity
  8
BORDER
100
AcDbText
 10
-11.190548
 20
-8.282764
 30
0.0
 40
0.061516
  1
FILENAME
 41
1.25
  7
SIM1
100
AcDbText
  0
TEXT
  5
102
100
AcDbEntity
  8
BORDER
100
AcDbText
 10
-8.852949
 20
-8.651858
 30
0.0
 40
0.061516
  1
REV.
 41
1.25
  7
SIM1
100
AcDbText
  0
TEXT
  5
103
100
AcDbEntity
  8
BORDER
100
AcDbText
 10
-10.944485
 20
-8.651858
 30
0.0
 40
0.061516
  1
DWG. NO.
 41
1.25
  7
SIM1
100
AcDbText
  0
LWPOLYLINE
  5
104
100
AcDbEntity
  8
BORDER
100
AcDbPolyline
 90
        2
 70
     0
 43
0.012303
 10
-8.975981
 20
-8.528827
 10
-8.975981
 20
-8.897921
  0
LWPOLYLINE
  5
108
100
AcDbEntity
  8
BORDER
100
AcDbPolyline
 90
        2
 70
     0
 43
0.012303
 10
-10.985495
 20
-8.897921
 10
-10.985495
 20
-8.528827
  0
LWPOLYLINE
  5
10C
100
AcDbEntity
  8
BORDER
100
AcDbPolyline
 90
        2
 70
     0
 43
0.012303
 10
-10.985495
 20
-8.897921
 10
-8.483855
 20
-8.897921
  0
TEXT
  5
110
100
AcDbEntity
  8
BORDER
100
AcDbText
 10
-11.21415
 20
-8.652752
 30
0.0
 40
0.061516
  1
SIZE
  7
SIM1
100
AcDbText
  0
TEXT
  5
111
100
AcDbEntity
  8
BORDER
100
AcDbText
 10
-10.903474
 20
-9.035539
 30
0.0
 40
0.061516
  1
SCALE
 41
1.25
  7
SIM1
100
AcDbText
  0
TEXT
  5
112
100
AcDbEntity
  8
BORDER
100
AcDbText
 10
-9.058002
 20
-9.035539
 30
0.0
 40
0.061516
  1
OF
 41
1.25
  7
SIM1
100
AcDbText
  0
TEXT
  5
113
100
AcDbEntity
  8
BORDER
100
AcDbText
 10
-9.837201
 20
-9.035539
 30
0.0
 40
0.061516
  1
SHEET
 41
1.25
  7
SIM1
100
AcDbText
  0
TEXT
  5
114
100
AcDbEntity
  8
BORDER
100
AcDbText
 10
-11.190548
 20
-7.667606
 30
0.0
 40
0.061516
  1
TITLE:
 41
1.25
  7
SIM1
100
AcDbText
  0
LWPOLYLINE
  5
115
100
AcDbEntity
  8
BORDER
100
AcDbPolyline
 90
        2
 70
     0
 43
0.012303
 10
-11.272569
 20
-8.528827
 10
-8.483855
 20
-8.528827
  0
LWPOLYLINE
  5
119
100
AcDbEntity
  8
BORDER
100
AcDbPolyline
 90
        2
 70
     0
 43
0.012303
 10
-10.985495
 20
-9.102974
 10
-10.985495
 20
-8.897921
  0
LWPOLYLINE
  5
11D
100
AcDbEntity
  8
BORDER
100
AcDbPolyline
 90
        2
 70
     0
 43
0.012303
 10
-9.919222
 20
-9.102974
 10
-9.919222
 20
-8.897921
  0
LWPOLYLINE
  5
121
100
AcDbEntity
  8
BORDER
100
AcDbPolyline
 90
        2
 70
     0
 43
0.024606
 10
-11.272569
 20
-8.159732
 10
-8.483855
 20
-8.159732
  0
LWPOLYLINE
  5
125
100
AcDbEntity
  8
BORDER
100
AcDbPolyline
 90
        2
 70
     0
 43
0.024606
 10
-11.272569
 20
-7.544575
 10
-8.483855
 20
-7.544575
  0
LWPOLYLINE
  5
129
100
AcDbEntity
  8
BORDER
100
AcDbPolyline
 90
        2
 70
     0
 43
0.024606
 10
-11.272569
 20
-9.102974
 10
-11.272569
 20
-6.847449
  0
TEXT
  5
12D
100
AcDbEntity
  8
BORDER
100
AcDbText
 10
-10.103324
 20
-7.328181
 30
0.0
 40
0.075972
  1
KNOXVILLE, TN. USA
  7
SIM1
 72
     1
 11
-9.520873
 21
-7.328181
 31
0.0
100
AcDbText
  0
TEXT
  5
12E
100
AcDbEntity
  8
BORDER
100
AcDbText
 10
-10.414303
 20
-7.200549
 30
0.0
 40
0.13675
  1
CONTROL TECHNOLOGY INC.
 41
0.6
  7
COM2
100
AcDbText
  0
LWPOLYLINE
  5
12F
100
AcDbEntity
  8
BORDER
100
AcDbPolyline
 90
        5
 70
     0
 43
0.024606
 10
-8.483855
 20
-9.102974
 10
-8.483855
 20
-6.847419
 10
-14.733855
 20
-6.847419
 10
-14.733855
 20
-9.102974
 10
-8.483855
 20
-9.102974
  0
TEXT
  5
136
100
AcDbEntity
  8
BORDER
100
AcDbText
 10
-11.173225
 20
-8.960231
 30
0.0
 40
0.1804
  1
C
 41
0.8
  7
SIM1
 72
     1
 11
-11.121682
 21
-8.960231
 31
0.0
100
AcDbText
  0
TEXT
  5
137
100
AcDbEntity
  8
BORDER
100
AcDbText
 10
-11.173225
 20
-8.958083
 30
0.0
 40
0.1804
  1
C
 41
0.8
  7
SIM1
 72
     1
 11
-11.121682
 21
-8.958083
 31
0.0
100
AcDbText
  0
TEXT
  5
138
100
AcDbEntity
  8
BORDER
100
AcDbText
 10
-11.174657
 20
-8.958083
 30
0.0
 40
0.1804
  1
C
 41
0.8
  7
SIM1
 72
     1
 11
-11.123114
 21
-8.958083
 31
0.0
100
AcDbText
  0
LWPOLYLINE
  5
139
100
AcDbEntity
  8
BORDER
100
AcDbPolyline
 90
        2
 70
     0
 10
-8.468919
 20
-1.352199
 40
0.0
 41
0.2
 10
-8.268919
 20
-1.352199
 40
0.2
 41
0.2
  0
LWPOLYLINE
  5
13D
100
AcDbEntity
  8
BORDER
100
AcDbPolyline
 90
        2
 70
     0
 43
0.015
 10
-8.422791
 20
-1.352974
 10
-8.083855
 20
-1.352974
  0
LWPOLYLINE
  5
141
100
AcDbEntity
  8
BORDER
100
AcDbPolyline
 90
        2
 70
     0
 43
0.015
 10
-18.982085
 20
-9.502177
 10
-18.982085
 20
-9.163241
  0
LWPOLYLINE
  5
145
100
AcDbEntity
  8
BORDER
100
AcDbPolyline
 90
        2
 70
     0
 43
0.015
 10
-18.982801
 20
6.458376
 10
-18.982801
 20
6.797313
  0
LWPOLYLINE
  5
149
100
AcDbEntity
  8
BORDER
100
AcDbPolyline
 90
        2
 70
     0
 43
0.015
 10
-29.883855
 20
-1.352974
 10
-29.541437
 20
-1.352974
  0
LINE
  5
14D
100
AcDbEntity
  8
BORDER
100
AcDbLine
 10
-14.733855
 20
5.740858
 30
0.0
 11
-14.733855
 21
5.232385
 31
0.0
  0
LINE
  5
14E
100
AcDbEntity
  8
BORDER
100
AcDbLine
 10
-14.389366
 20
5.740858
 30
0.0
 11
-14.389366
 21
5.232385
 31
0.0
  0
LINE
  5
14F
100
AcDbEntity
  8
BORDER
100
AcDbLine
 10
-13.640165
 20
5.740858
 30
0.0
 11
-13.640165
 21
5.232385
 31
0.0
  0
LINE
  5
150
100
AcDbEntity
  8
BORDER
100
AcDbLine
 10
-10.332388
 20
5.740858
 30
0.0
 11
-10.332388
 21
5.232385
 31
0.0
  0
LINE
  5
151
100
AcDbEntity
  8
BORDER
100
AcDbLine
 10
-9.384685
 20
5.740858
 30
0.0
 11
-9.384685
 21
5.232385
 31
0.0
  0
LWPOLYLINE
  5
152
100
AcDbEntity
  8
BORDER
100
AcDbPolyline
 90
       15
 70
     0
 43
0.011
 10
-10.532169
 20
-7.005642
 10
-11.065398
 20
-7.005642
 42
0.414214
 10
-11.130778
 20
-7.071022
 10
-11.130778
 20
-7.327453
 42
0.414214
 10
-11.065398
 20
-7.392833
 10
-10.834564
 20
-7.392833
 10
-10.834564
 20
-7.290787
 10
-11.030485
 20
-7.290787
 10
-11.030485
 20
-7.114102
 10
-10.787426
 20
-7.114102
 10
-10.787426
 20
-7.392833
 10
-10.687133
 20
-7.392833
 10
-10.687133
 20
-7.112353
 10
-10.537673
 20
-7.112353
 10
-10.537673
 20
-7.005642
  0
LWPOLYLINE
  5
163
100
AcDbEntity
  8
BORDER
100
AcDbPolyline
 90
        5
 70
     0
 43
0.011
 10
-10.640112
 20
-7.398327
 10
-10.640112
 20
-7.156599
 10
-10.53807
 20
-7.156599
 10
-10.53807
 20
-7.392833
 10
-10.640112
 20
-7.392833
  0
LINE
  5
16A
100
AcDbEntity
  8
BORDER
100
AcDbLine
 10
-10.532169
 20
-7.011818
 30
0.0
 11
-10.532169
 21
-6.999956
 31
0.0
  0
ENDBLK
  5
16B
100
AcDbEntity
  8
0
100
AcDbBlockEnd
  0
BLOCK
  5
1098
100
AcDbEntity
  8
0
100
AcDbBlockBegin
  2
TMPOVLA
 70
     0
 10
0.0
 20
0.0
 30
0.0
  3
TMPOVLA
  1

  0
SPLINE
  5
108D
100
AcDbEntity
  8
ARTWORK
100
AcDbSpline
210
0.0
220
0.0
230
-1.0
 70
    11
 71
     3
 72
    16
 73
    12
 74
     0
 42
0.0000001
 43
0.0000001
 40
0.0
 40
0.0
 40
0.0
 40
0.0
 40
0.3333333333333333
 40
0.3333333333333333
 40
0.3333333333333333
 40
0.3333333333333333
 40
0.6666666666666666
 40
0.6666666666666666
 40
0.6666666666666666
 40
0.6666666666666666
 40
1.0
 40
1.0
 40
1.0
 40
1.0
 10
-0.5530629921259843
 20
4.268094488188976
 30
0.0
 10
-0.6463897637795277
 20
4.268165354330708
 30
0.0
 10
-0.6463976377952756
 20
4.128031496062992
 30
0.0
 10
-0.5530669291338583
 20
4.12809842519685
 30
0.0
 10
-0.5530669291338583
 20
4.12809842519685
 30
0.0
 10
-0.459748031496063
 20
4.128011811023622
 30
0.0
 10
-0.4597283464566929
 20
4.268149606299212
 30
0.0
 10
-0.5530511811023623
 20
4.268090551181102
 30
0.0
 10
-0.5530511811023623
 20
4.268090551181102
 30
0.0
 10
-0.5530511811023623
 20
4.268090551181102
 30
0.0
 10
-0.5530629921259843
 20
4.268094488188976
 30
0.0
 10
-0.5530629921259843
 20
4.268094488188976
 30
0.0
  0
SPLINE
  5
108E
100
AcDbEntity
  8
ARTWORK
100
AcDbSpline
210
0.0
220
0.0
230
-1.0
 70
    11
 71
     3
 72
    16
 73
    12
 74
     0
 42
0.0000001
 43
0.0000001
 40
0.0
 40
0.0
 40
0.0
 40
0.0
 40
0.3333333333333333
 40
0.3333333333333333
 40
0.3333333333333333
 40
0.3333333333333333
 40
0.6666666666666666
 40
0.6666666666666666
 40
0.6666666666666666
 40
0.6666666666666666
 40
1.0
 40
1.0
 40
1.0
 40
1.0
 10
-0.5530629921259843
 20
4.268094488188976
 30
0.0
 10
-0.6463897637795277
 20
4.268165354330708
 30
0.0
 10
-0.6463976377952756
 20
4.128031496062992
 30
0.0
 10
-0.5530669291338583
 20
4.12809842519685
 30
0.0
 10
-0.5530669291338583
 20
4.12809842519685
 30
0.0
 10
-0.459748031496063
 20
4.128011811023622
 30
0.0
 10
-0.4597283464566929
 20
4.268149606299212
 30
0.0
 10
-0.5530511811023623
 20
4.268090551181102
 30
0.0
 10
-0.5530511811023623
 20
4.268090551181102
 30
0.0
 10
-0.5530511811023623
 20
4.268090551181102
 30
0.0
 10
-0.5530629921259843
 20
4.268094488188976
 30
0.0
 10
-0.5530629921259843
 20
4.268094488188976
 30
0.0
  0
LWPOLYLINE
  5
108F
100
AcDbEntity
  8
ARTWORK
 62
     7
100
AcDbPolyline
 90
        5
 70
     1
 43
0.0
 39
5.0
 10
-0.828531
 20
4.425098
 10
-0.165531
 20
4.425098
 10
-0.165531
 20
4.885098
 10
-0.828531
 20
4.885098
 10
-0.828531
 20
4.425098
  0
TEXT
  5
1090
100
AcDbEntity
  8
ARTWORK
100
AcDbText
 10
-0.726021
 20
4.025732
 30
0.0
 40
0.069999
  1
ACTIVE
 41
0.9
 51
-0.000002
  7
DENMARK
100
AcDbText
  0
LWPOLYLINE
  5
1091
100
AcDbEntity
  8
ARTWORK
 62
     7
100
AcDbPolyline
 90
        5
 70
     1
 43
0.0
 39
5.0
 10
-0.828531
 20
-4.782417
 10
-0.165531
 20
-4.782417
 10
-0.165531
 20
-4.387417
 10
-0.828531
 20
-4.387417
 10
-0.828531
 20
-4.782417
  0
SPLINE
  5
1092
100
AcDbEntity
  8
ARTWORK
100
AcDbSpline
210
0.0
220
0.0
230
1.0
 70
    11
 71
     3
 72
    64
 73
    60
 74
     0
 42
0.0000001
 43
0.0000001
 40
0.0
 40
0.0
 40
0.0
 40
0.0
 40
0.0666666666666667
 40
0.0666666666666667
 40
0.0666666666666667
 40
0.0666666666666667
 40
0.1333333333333333
 40
0.1333333333333333
 40
0.1333333333333333
 40
0.1333333333333333
 40
0.2
 40
0.2
 40
0.2
 40
0.2
 40
0.2666666666666666
 40
0.2666666666666666
 40
0.2666666666666666
 40
0.2666666666666666
 40
0.3333333333333333
 40
0.3333333333333333
 40
0.3333333333333333
 40
0.3333333333333333
 40
0.4
 40
0.4
 40
0.4
 40
0.4
 40
0.4666666666666666
 40
0.4666666666666666
 40
0.4666666666666666
 40
0.4666666666666666
 40
0.5333333333333333
 40
0.5333333333333333
 40
0.5333333333333333
 40
0.5333333333333333
 40
0.6
 40
0.6
 40
0.6
 40
0.6
 40
0.6666666666666666
 40
0.6666666666666666
 40
0.6666666666666666
 40
0.6666666666666666
 40
0.7333333333333333
 40
0.7333333333333333
 40
0.7333333333333333
 40
0.7333333333333333
 40
0.8
 40
0.8
 40
0.8
 40
0.8
 40
0.8666666666666666
 40
0.8666666666666666
 40
0.8666666666666666
 40
0.8666666666666666
 40
0.9333333333333332
 40
0.9333333333333332
 40
0.9333333333333332
 40
0.9333333333333332
 40
1.0
 40
1.0
 40
1.0
 40
1.0
 10
-0.6
 20
-4.602787401574802
 30
0.0
 10
-0.6
 20
-4.602787401574802
 30
0.0
 10
-0.5030669291338583
 20
-4.602787401574802
 30
0.0
 10
-0.5030669291338583
 20
-4.602787401574802
 30
0.0
 10
-0.5030669291338583
 20
-4.602787401574802
 30
0.0
 10
-0.5030669291338583
 20
-4.602787401574802
 30
0.0
 10
-0.5030669291338583
 20
-4.554322834645669
 30
0.0
 10
-0.5030669291338583
 20
-4.554322834645669
 30
0.0
 10
-0.5030669291338583
 20
-4.554322834645669
 30
0.0
 10
-0.5030669291338583
 20
-4.554322834645669
 30
0.0
 10
-0.5774291338582679
 20
-4.554322834645669
 30
0.0
 10
-0.5774291338582679
 20
-4.554322834645669
 30
0.0
 10
-0.5774291338582679
 20
-4.554322834645669
 30
0.0
 10
-0.5774291338582679
 20
-4.554322834645669
 30
0.0
 10
-0.5774291338582679
 20
-4.48415748031496
 30
0.0
 10
-0.5774291338582679
 20
-4.48415748031496
 30
0.0
 10
-0.5774291338582679
 20
-4.48415748031496
 30
0.0
 10
-0.5774291338582679
 20
-4.48415748031496
 30
0.0
 10
-0.4848700787401575
 20
-4.48415748031496
 30
0.0
 10
-0.4848700787401575
 20
-4.48415748031496
 30
0.0
 10
-0.4848700787401575
 20
-4.48415748031496
 30
0.0
 10
-0.4848700787401575
 20
-4.48415748031496
 30
0.0
 10
-0.4848700787401575
 20
-4.602964566929133
 30
0.0
 10
-0.4848700787401575
 20
-4.602964566929133
 30
0.0
 10
-0.4848700787401575
 20
-4.602964566929133
 30
0.0
 10
-0.4848700787401575
 20
-4.602964566929133
 30
0.0
 10
-0.4339527559055118
 20
-4.602964566929133
 30
0.0
 10
-0.4339527559055118
 20
-4.602964566929133
 30
0.0
 10
-0.4339527559055118
 20
-4.602964566929133
 30
0.0
 10
-0.4339527559055118
 20
-4.602964566929133
 30
0.0
 10
-0.4339527559055118
 20
-4.483984251968504
 30
0.0
 10
-0.4339527559055118
 20
-4.483984251968504
 30
0.0
 10
-0.4339527559055118
 20
-4.483984251968504
 30
0.0
 10
-0.4339527559055118
 20
-4.483984251968504
 30
0.0
 10
-0.3655393700787402
 20
-4.483984251968504
 30
0.0
 10
-0.3655393700787402
 20
-4.483984251968504
 30
0.0
 10
-0.3655393700787402
 20
-4.483984251968504
 30
0.0
 10
-0.3655393700787402
 20
-4.483984251968504
 30
0.0
 10
-0.3655393700787402
 20
-4.432015748031496
 30
0.0
 10
-0.3655393700787402
 20
-4.432015748031496
 30
0.0
 10
-0.3655393700787402
 20
-4.432015748031496
 30
0.0
 10
-0.3655393700787402
 20
-4.432015748031496
 30
0.0
 10
-0.6024488188976378
 20
-4.432015748031496
 30
0.0
 10
-0.6024488188976378
 20
-4.432015748031496
 30
0.0
 10
-0.6024488188976378
 20
-4.432015748031496
 30
0.0
 10
-0.6155708661417324
 20
-4.432015748031496
 30
0.0
 10
-0.6285196850393701
 20
-4.436389763779527
 30
0.0
 10
-0.6285196850393701
 20
-4.45913779527559
 30
0.0
 10
-0.6285196850393701
 20
-4.45913779527559
 30
0.0
 10
-0.6285196850393701
 20
-4.45913779527559
 30
0.0
 10
-0.6285196850393701
 20
-4.575842519685039
 30
0.0
 10
-0.6285196850393701
 20
-4.575842519685039
 30
0.0
 10
-0.6285196850393701
 20
-4.575842519685039
 30
0.0
 10
-0.6285196850393701
 20
-4.607161417322834
 30
0.0
 10
-0.6001732283464567
 20
-4.602787401574802
 30
0.0
 10
-0.6001732283464567
 20
-4.602787401574802
 30
0.0
 10
-0.6001732283464567
 20
-4.602787401574802
 30
0.0
 10
-0.6001732283464567
 20
-4.602787401574802
 30
0.0
 10
-0.6
 20
-4.602787401574802
 30
0.0
 10
-0.6
 20
-4.602787401574802
 30
0.0
  0
SPLINE
  5
1093
100
AcDbEntity
  8
ARTWORK
100
AcDbSpline
210
0.0
220
0.0
230
1.0
 70
     8
 71
     3
 72
    60
 73
    56
 74
     0
 42
0.0000001
 43
0.0000001
 40
0.0
 40
0.0
 40
0.0
 40
0.0
 40
0.0714285714285714
 40
0.0714285714285714
 40
0.0714285714285714
 40
0.0714285714285714
 40
0.1428571428571428
 40
0.1428571428571428
 40
0.1428571428571428
 40
0.1428571428571428
 40
0.2142857142857143
 40
0.2142857142857143
 40
0.2142857142857143
 40
0.2142857142857143
 40
0.2857142857142857
 40
0.2857142857142857
 40
0.2857142857142857
 40
0.2857142857142857
 40
0.3571428571428571
 40
0.3571428571428571
 40
0.3571428571428571
 40
0.3571428571428571
 40
0.4285714285714285
 40
0.4285714285714285
 40
0.4285714285714285
 40
0.4285714285714285
 40
0.5
 40
0.5
 40
0.5
 40
0.5
 40
0.5714285714285713
 40
0.5714285714285713
 40
0.5714285714285713
 40
0.5714285714285713
 40
0.6428571428571427
 40
0.6428571428571427
 40
0.6428571428571427
 40
0.6428571428571427
 40
0.7142857142857141
 40
0.7142857142857141
 40
0.7142857142857141
 40
0.7142857142857141
 40
0.7857142857142855
 40
0.7857142857142855
 40
0.7857142857142855
 40
0.7857142857142855
 40
0.8571428571428569
 40
0.8571428571428569
 40
0.8571428571428569
 40
0.8571428571428569
 40
0.9285714285714282
 40
0.9285714285714282
 40
0.9285714285714282
 40
0.9285714285714282
 40
1.0
 40
1.0
 40
1.0
 40
1.0
 10
-0.6
 20
-4.602787401574802
 30
0.0
 10
-0.6
 20
-4.602787401574802
 30
0.0
 10
-0.5030669291338583
 20
-4.602787401574802
 30
0.0
 10
-0.5030669291338583
 20
-4.602787401574802
 30
0.0
 10
-0.5030669291338583
 20
-4.602787401574802
 30
0.0
 10
-0.5030669291338583
 20
-4.602787401574802
 30
0.0
 10
-0.5030669291338583
 20
-4.554322834645669
 30
0.0
 10
-0.5030669291338583
 20
-4.554322834645669
 30
0.0
 10
-0.5030669291338583
 20
-4.554322834645669
 30
0.0
 10
-0.5030669291338583
 20
-4.554322834645669
 30
0.0
 10
-0.5774291338582679
 20
-4.554322834645669
 30
0.0
 10
-0.5774291338582679
 20
-4.554322834645669
 30
0.0
 10
-0.5774291338582679
 20
-4.554322834645669
 30
0.0
 10
-0.5774291338582679
 20
-4.554322834645669
 30
0.0
 10
-0.5774291338582679
 20
-4.48415748031496
 30
0.0
 10
-0.5774291338582679
 20
-4.48415748031496
 30
0.0
 10
-0.5774291338582679
 20
-4.48415748031496
 30
0.0
 10
-0.5774291338582679
 20
-4.48415748031496
 30
0.0
 10
-0.4848700787401575
 20
-4.48415748031496
 30
0.0
 10
-0.4848700787401575
 20
-4.48415748031496
 30
0.0
 10
-0.4848700787401575
 20
-4.48415748031496
 30
0.0
 10
-0.4848700787401575
 20
-4.48415748031496
 30
0.0
 10
-0.4848700787401575
 20
-4.602964566929133
 30
0.0
 10
-0.4848700787401575
 20
-4.602964566929133
 30
0.0
 10
-0.4848700787401575
 20
-4.602964566929133
 30
0.0
 10
-0.4848700787401575
 20
-4.602964566929133
 30
0.0
 10
-0.4339527559055118
 20
-4.602964566929133
 30
0.0
 10
-0.4339527559055118
 20
-4.602964566929133
 30
0.0
 10
-0.4339527559055118
 20
-4.602964566929133
 30
0.0
 10
-0.4339527559055118
 20
-4.602964566929133
 30
0.0
 10
-0.4339527559055118
 20
-4.483984251968504
 30
0.0
 10
-0.4339527559055118
 20
-4.483984251968504
 30
0.0
 10
-0.4339527559055118
 20
-4.483984251968504
 30
0.0
 10
-0.4339527559055118
 20
-4.483984251968504
 30
0.0
 10
-0.3655393700787402
 20
-4.483984251968504
 30
0.0
 10
-0.3655393700787402
 20
-4.483984251968504
 30
0.0
 10
-0.3655393700787402
 20
-4.483984251968504
 30
0.0
 10
-0.3655393700787402
 20
-4.483984251968504
 30
0.0
 10
-0.3655393700787402
 20
-4.432015748031496
 30
0.0
 10
-0.3655393700787402
 20
-4.432015748031496
 30
0.0
 10
-0.3655393700787402
 20
-4.432015748031496
 30
0.0
 10
-0.3655393700787402
 20
-4.432015748031496
 30
0.0
 10
-0.6024488188976378
 20
-4.432015748031496
 30
0.0
 10
-0.6024488188976378
 20
-4.432015748031496
 30
0.0
 10
-0.6024488188976378
 20
-4.432015748031496
 30
0.0
 10
-0.6155708661417324
 20
-4.432015748031496
 30
0.0
 10
-0.6285196850393701
 20
-4.436389763779527
 30
0.0
 10
-0.6285196850393701
 20
-4.45913779527559
 30
0.0
 10
-0.6285196850393701
 20
-4.45913779527559
 30
0.0
 10
-0.6285196850393701
 20
-4.45913779527559
 30
0.0
 10
-0.6285196850393701
 20
-4.575842519685039
 30
0.0
 10
-0.6285196850393701
 20
-4.575842519685039
 30
0.0
 10
-0.6285196850393701
 20
-4.575842519685039
 30
0.0
 10
-0.6285196850393701
 20
-4.607161417322834
 30
0.0
 10
-0.6001732283464567
 20
-4.602787401574802
 30
0.0
 10
-0.6001732283464567
 20
-4.602787401574802
 30
0.0
  0
SPLINE
  5
1094
100
AcDbEntity
  8
ARTWORK
100
AcDbSpline
210
0.0
220
0.0
230
-1.0
 70
    11
 71
     3
 72
    20
 73
    16
 74
     0
 42
0.0000001
 43
0.0000001
 40
0.0
 40
0.0
 40
0.0
 40
0.0
 40
0.25
 40
0.25
 40
0.25
 40
0.25
 40
0.5
 40
0.5
 40
0.5
 40
0.5
 40
0.75
 40
0.75
 40
0.75
 40
0.75
 40
1.0
 40
1.0
 40
1.0
 40
1.0
 10
-0.3656692913385827
 20
-4.501161417322834
 30
0.0
 10
-0.3656692913385827
 20
-4.501161417322834
 30
0.0
 10
-0.3656692913385827
 20
-4.603094488188976
 30
0.0
 10
-0.3656692913385827
 20
-4.603094488188976
 30
0.0
 10
-0.3656692913385827
 20
-4.603094488188976
 30
0.0
 10
-0.3656692913385827
 20
-4.603094488188976
 30
0.0
 10
-0.4154055118110237
 20
-4.603094488188976
 30
0.0
 10
-0.4154055118110237
 20
-4.603094488188976
 30
0.0
 10
-0.4154055118110237
 20
-4.603094488188976
 30
0.0
 10
-0.4154055118110237
 20
-4.603094488188976
 30
0.0
 10
-0.4154055118110237
 20
-4.501161417322834
 30
0.0
 10
-0.4154055118110237
 20
-4.501161417322834
 30
0.0
 10
-0.4154055118110237
 20
-4.501161417322834
 30
0.0
 10
-0.4154055118110237
 20
-4.501161417322834
 30
0.0
 10
-0.3656692913385827
 20
-4.501161417322834
 30
0.0
 10
-0.3656692913385827
 20
-4.501161417322834
 30
0.0
  0
TEXT
  5
1095
100
AcDbEntity
  8
ARTWORK
100
AcDbText
 10
-0.620969
 20
-4.737709
 30
0.0
 40
0.09
  1
2558
 41
0.629661
 51
5.069935
  7
DENMARK
100
AcDbText
  0
TEXT
  5
1096
100
AcDbEntity
  8
ARTWORK
100
AcDbText
 10
-0.77865
 20
4.684598
 30
0.0
 40
0.089997
  1
ANALOG IN
 41
0.729
 51
3.649337
  7
DENMARK
100
AcDbText
  0
TEXT
  5
1097
100
AcDbEntity
  8
ARTWORK
100
AcDbText
 10
-0.624469
 20
4.536602
 30
0.0
 40
0.089997
  1
8 CH
 41
0.729
 51
3.649337
  7
DENMARK
100
AcDbText
  0
ENDBLK
  5
1099
100
AcDbEntity
  8
0
100
AcDbBlockEnd
  0
ENDSEC
  0
SECTION
  2
ENTITIES
  0
TEXT
  5
3DD
100
AcDbEntity
  8
TEXT
100
AcDbText
 10
18.681981
 20
1.09155
 30
0.0
 40
0.061821
  1
2559-RTD_FRONTVIEW.DWG
100
AcDbText
  0
TEXT
  5
3E0
100
AcDbEntity
  8
TEXT
100
AcDbText
 10
19.360519
 20
1.700632
 30
0.0
 40
0.125
  1
CTI 2559-RTD
100
AcDbText
  0
TEXT
  5
3E9
100
AcDbEntity
  8
0
100
AcDbText
 10
66.325582
 20
6.850746
 30
0.0
 40
0.075
  1
 
100
AcDbText
  0
INSERT
  5
3F6
100
AcDbEntity
  8
0
100
AcDbBlockReference
  2
CSHEET
 10
29.883855
 20
9.530059
 30
0.0
  0
TEXT
  5
417
100
AcDbEntity
  8
TEXT
100
AcDbText
 10
19.413813
 20
1.476994
 30
0.0
 40
0.125
  1
RTD IN 8 CH
100
AcDbText
  0
TEXT
  5
423
100
AcDbEntity
  8
TEXT
100
AcDbText
 10
15.47937
 20
0.495066
 30
0.0
 40
0.064973
  1
2009
100
AcDbText
  0
TEXT
  5
424
100
AcDbEntity
  8
TEXT
100
AcDbText
 10
18.179233
 20
2.305865
 30
0.0
 40
0.075
  1
3/09
100
AcDbText
  0
TEXT
  5
425
100
AcDbEntity
  8
TEXT
100
AcDbText
 10
17.134091
 20
2.305865
 30
0.0
 40
0.075
  1
R. DAVIS
100
AcDbText
  0
TEXT
  5
427
100
AcDbEntity
  8
TEXT
100
AcDbText
 10
21.117178
 20
0.487051
 30
0.0
 40
0.1
  1
1
100
AcDbText
  0
TEXT
  5
428
100
AcDbEntity
  8
TEXT
100
AcDbText
 10
20.567178
 20
0.487051
 30
0.0
 40
0.1
  1
1
100
AcDbText
  0
TEXT
  5
429
100
AcDbEntity
  8
TEXT
100
AcDbText
 10
19.517178
 20
0.487051
 30
0.0
 40
0.1
  1
1=1
100
AcDbText
  0
LINE
  5
430
100
AcDbEntity
  8
PANEL
100
AcDbLine
 10
8.38061
 20
13.818
 30
0.0
 11
8.38061
 21
3.361
 31
0.0
  0
LINE
  5
437
100
AcDbEntity
  8
PANEL
100
AcDbLine
 10
8.38061
 20
3.361
 30
0.0
 11
7.59761
 21
3.361
 31
0.0
  0
LINE
  5
472
100
AcDbEntity
  8
PANEL
100
AcDbLine
 10
7.59761
 20
13.818
 30
0.0
 11
8.38061
 21
13.818
 31
0.0
  0
TEXT
  5
5FE
100
AcDbEntity
  8
1
100
AcDbText
 10
71.661385
 20
6.395964
 30
0.0
 40
0.075
  1
 
100
AcDbText
  0
TEXT
  5
5FF
100
AcDbEntity
  8
1
100
AcDbText
 10
72.686385
 20
6.395964
 30
0.0
 40
0.075
  1
 
100
AcDbText
  0
TEXT
  5
600
100
AcDbEntity
  8
0
100
AcDbText
 10
14.572781
 20
20.113833
 30
0.0
 40
0.1
  1
 
 41
0.85
  7
HVLS
 72
     4
 11
14.602885
 21
20.113833
 31
0.0
100
AcDbText
  0
TEXT
  5
601
100
AcDbEntity
  8
1
100
AcDbText
 10
65.895385
 20
4.809964
 30
0.0
 40
0.075
  1
 
100
AcDbText
  0
TEXT
  5
602
100
AcDbEntity
  8
1
100
AcDbText
 10
66.920385
 20
4.809964
 30
0.0
 40
0.075
  1
 
100
AcDbText
  0
TEXT
  5
603
100
AcDbEntity
  8
0
100
AcDbText
 10
75.323967
 20
19.006579
 30
0.0
 40
0.075
  1
 
100
AcDbText
  0
TEXT
  5
60B
100
AcDbEntity
  8
0
100
AcDbText
 10
112.643368
 20
7.492599
 30
0.0
 40
0.075
  1
 
100
AcDbText
  0
TEXT
  5
651
100
AcDbEntity
  8
1
100
AcDbText
 10
57.589249
 20
3.778988
 30
0.0
 40
0.075
  1
 
100
AcDbText
  0
TEXT
  5
652
100
AcDbEntity
  8
1
100
AcDbText
 10
58.614249
 20
3.778988
 30
0.0
 40
0.075
  1
 
100
AcDbText
  0
TEXT
  5
654
100
AcDbEntity
  8
0
100
AcDbText
 10
83.316026
 20
20.152467
 30
0.0
 40
0.075
  1
 
100
AcDbText
  0
TEXT
  5
655
100
AcDbEntity
  8
1
100
AcDbText
 10
60.864249
 20
9.468857
 30
0.0
 40
0.065
  1
 
100
AcDbText
  0
TEXT
  5
656
100
AcDbEntity
  8
1
100
AcDbText
 10
61.879249
 20
9.468857
 30
0.0
 40
0.065
  1
 
100
AcDbText
  0
TEXT
  5
70E
100
AcDbEntity
  8
DIM
100
AcDbText
 10
57.273286
 20
14.493314
 30
0.0
 40
0.125
  1
 
100
AcDbText
  0
LWPOLYLINE
  5
7EF
100
AcDbEntity
  8
TEXT
100
AcDbPolyline
 90
        2
 70
     0
 43
0.06
 10
15.350171
 20
0.512804
 10
15.465454
 20
0.512804
  0
LINE
  5
805
100
AcDbEntity
  8
PANEL
100
AcDbLine
 10
7.59761
 20
3.361
 30
0.0
 11
7.59761
 21
4.426
 31
0.0
  0
LINE
  5
806
100
AcDbEntity
  8
PANEL
100
AcDbLine
 10
7.59761
 20
10.846
 30
0.0
 11
7.59761
 21
13.818
 31
0.0
  0
TEXT
  5
B6F
100
AcDbEntity
  8
0
100
AcDbText
 10
91.995097
 20
9.227322
 30
0.0
 40
0.075
  1
 
100
AcDbText
  0
TEXT
  5
B9A
100
AcDbEntity
  8
0
100
AcDbText
 10
115.271778
 20
10.092424
 30
0.0
 40
0.075
  1
 
100
AcDbText
  0
TEXT
  5
BC0
100
AcDbEntity
  8
0
100
AcDbText
 10
136.963273
 20
9.240617
 30
0.0
 40
0.075
  1
 
100
AcDbText
  0
TEXT
  5
BC1
100
AcDbEntity
  8
0
100
AcDbText
 10
160.239954
 20
10.105719
 30
0.0
 40
0.075
  1
 
100
AcDbText
  0
TEXT
  5
C45
100
AcDbEntity
  8
0
100
AcDbText
 10
114.569043
 20
9.738992
 30
0.0
 40
0.075
  1
 
100
AcDbText
  0
TEXT
  5
C67
100
AcDbEntity
  8
0
100
AcDbText
 10
137.845725
 20
10.604094
 30
0.0
 40
0.075
  1
 
100
AcDbText
  0
TEXT
  5
CFA
100
AcDbEntity
  8
0
  6
CONTINUOUS
100
AcDbText
 10
35.196261
 20
15.378524
 30
0.0
 40
0.09
  1
 
 41
8.763804
  7
HL-LD
 72
     5
 11
35.787818
 21
15.378524
 31
0.0
100
AcDbText
  0
ARC
  5
EBB
100
AcDbEntity
  8
PARTS
100
AcDbCircle
 10
7.70061
 20
4.289
 30
0.0
 40
0.1
100
AcDbArc
 50
180.0
 51
270.0
  0
ARC
  5
EBC
100
AcDbEntity
  8
PARTS
100
AcDbCircle
 10
8.27761
 20
4.289
 30
0.0
 40
0.1
100
AcDbArc
 50
270.0
 51
0.0
  0
ARC
  5
EBD
100
AcDbEntity
  8
PARTS
100
AcDbCircle
 10
7.70061
 20
10.984
 30
0.0
 40
0.1
100
AcDbArc
 50
90.0
 51
180.0
  0
ARC
  5
EBE
100
AcDbEntity
  8
PARTS
100
AcDbCircle
 10
8.27761
 20
10.984
 30
0.0
 40
0.1
100
AcDbArc
 50
0.0
 51
90.0
  0
LINE
  5
EBF
100
AcDbEntity
  8
PARTS
100
AcDbLine
 10
8.27761
 20
4.189
 30
0.0
 11
7.70061
 21
4.189
 31
0.0
  0
LINE
  5
EC0
100
AcDbEntity
  8
PARTS
100
AcDbLine
 10
7.70061
 20
11.084
 30
0.0
 11
8.27761
 21
11.084
 31
0.0
  0
LINE
  5
EC1
100
AcDbEntity
  8
PARTS
100
AcDbLine
 10
8.02161
 20
4.97
 30
0.0
 11
8.13161
 21
4.97
 31
0.0
  0
LINE
  5
EC2
100
AcDbEntity
  8
PARTS
100
AcDbLine
 10
8.13161
 20
4.97
 30
0.0
 11
8.13161
 21
4.8
 31
0.0
  0
LINE
  5
EC3
100
AcDbEntity
  8
PARTS
100
AcDbLine
 10
8.02161
 20
4.97
 30
0.0
 11
8.02161
 21
4.8
 31
0.0
  0
LINE
  5
EC4
100
AcDbEntity
  8
PARTS
100
AcDbLine
 10
8.02161
 20
4.8
 30
0.0
 11
8.13161
 21
4.8
 31
0.0
  0
LINE
  5
EC5
100
AcDbEntity
  8
PARTS
100
AcDbLine
 10
7.84661
 20
4.65
 30
0.0
 11
7.95661
 21
4.65
 31
0.0
  0
LINE
  5
EC6
100
AcDbEntity
  8
PARTS
100
AcDbLine
 10
7.84661
 20
4.82
 30
0.0
 11
7.84661
 21
4.65
 31
0.0
  0
LINE
  5
EC7
100
AcDbEntity
  8
PARTS
100
AcDbLine
 10
7.95661
 20
4.82
 30
0.0
 11
7.95661
 21
4.65
 31
0.0
  0
LINE
  5
EC8
100
AcDbEntity
  8
PARTS
100
AcDbLine
 10
7.84661
 20
4.82
 30
0.0
 11
7.95661
 21
4.82
 31
0.0
  0
CIRCLE
  5
EC9
100
AcDbEntity
  8
PARTS
100
AcDbCircle
 10
8.25511
 20
4.885
 30
0.0
 40
0.0835
  0
CIRCLE
  5
ECA
100
AcDbEntity
  8
PARTS
100
AcDbCircle
 10
7.72311
 20
4.735
 30
0.0
 40
0.0835
  0
TEXT
  5
ECB
100
AcDbEntity
  8
PARTS
100
AcDbText
 10
8.01661
 20
4.985065
 30
0.0
 40
0.06
  1
D8
  7
ROMANS
 72
     4
 11
8.07661
 21
5.015065
 31
0.0
100
AcDbText
  0
TEXT
  5
ECC
100
AcDbEntity
  8
PARTS
100
AcDbText
 10
7.840181
 20
4.835065
 30
0.0
 40
0.06
  1
D4
  7
ROMANS
 72
     4
 11
7.90161
 21
4.865065
 31
0.0
100
AcDbText
  0
LINE
  5
ECD
100
AcDbEntity
  8
PARTS
100
AcDbLine
 10
8.174928
 20
4.859231
 30
0.0
 11
8.325883
 21
4.930656
 31
0.0
  0
LINE
  5
ECE
100
AcDbEntity
  8
PARTS
100
AcDbLine
 10
8.184337
 20
4.839344
 30
0.0
 11
8.335292
 21
4.910769
 31
0.0
  0
LINE
  5
ECF
100
AcDbEntity
  8
PARTS
100
AcDbLine
 10
7.642859
 20
4.760556
 30
0.0
 11
7.807241
 21
4.731099
 31
0.0
  0
LINE
  5
ED0
100
AcDbEntity
  8
PARTS
100
AcDbLine
 10
7.638979
 20
4.738901
 30
0.0
 11
7.80336
 21
4.709444
 31
0.0
  0
LINE
  5
ED1
100
AcDbEntity
  8
PARTS
100
AcDbLine
 10
8.02161
 20
5.2675
 30
0.0
 11
8.13161
 21
5.2675
 31
0.0
  0
LINE
  5
ED2
100
AcDbEntity
  8
PARTS
100
AcDbLine
 10
8.13161
 20
5.2675
 30
0.0
 11
8.13161
 21
5.0975
 31
0.0
  0
LINE
  5
ED3
100
AcDbEntity
  8
PARTS
100
AcDbLine
 10
8.02161
 20
5.2675
 30
0.0
 11
8.02161
 21
5.0975
 31
0.0
  0
LINE
  5
ED4
100
AcDbEntity
  8
PARTS
100
AcDbLine
 10
8.02161
 20
5.0975
 30
0.0
 11
8.13161
 21
5.0975
 31
0.0
  0
LINE
  5
ED5
100
AcDbEntity
  8
PARTS
100
AcDbLine
 10
7.84661
 20
4.9475
 30
0.0
 11
7.95661
 21
4.9475
 31
0.0
  0
LINE
  5
ED6
100
AcDbEntity
  8
PARTS
100
AcDbLine
 10
7.84661
 20
5.1175
 30
0.0
 11
7.84661
 21
4.9475
 31
0.0
  0
LINE
  5
ED7
100
AcDbEntity
  8
PARTS
100
AcDbLine
 10
7.95661
 20
5.1175
 30
0.0
 11
7.95661
 21
4.9475
 31
0.0
  0
LINE
  5
ED8
100
AcDbEntity
  8
PARTS
100
AcDbLine
 10
7.84661
 20
5.1175
 30
0.0
 11
7.95661
 21
5.1175
 31
0.0
  0
CIRCLE
  5
ED9
100
AcDbEntity
  8
PARTS
100
AcDbCircle
 10
8.25511
 20
5.1825
 30
0.0
 40
0.0835
  0
CIRCLE
  5
EDA
100
AcDbEntity
  8
PARTS
100
AcDbCircle
 10
7.72311
 20
5.0325
 30
0.0
 40
0.0835
  0
TEXT
  5
EDB
100
AcDbEntity
  8
PARTS
100
AcDbText
 10
8.01661
 20
5.282565
 30
0.0
 40
0.06
  1
D7
  7
ROMANS
 72
     4
 11
8.07661
 21
5.312565
 31
0.0
100
AcDbText
  0
TEXT
  5
EDC
100
AcDbEntity
  8
PARTS
100
AcDbText
 10
7.84161
 20
5.132565
 30
0.0
 40
0.06
  1
D3
  7
ROMANS
 72
     4
 11
7.90161
 21
5.162565
 31
0.0
100
AcDbText
  0
LINE
  5
EDD
100
AcDbEntity
  8
PARTS
100
AcDbLine
 10
8.174928
 20
5.156731
 30
0.0
 11
8.325883
 21
5.228156
 31
0.0
  0
LINE
  5
EDE
100
AcDbEntity
  8
PARTS
100
AcDbLine
 10
8.184337
 20
5.136844
 30
0.0
 11
8.335292
 21
5.208269
 31
0.0
  0
LINE
  5
EDF
100
AcDbEntity
  8
PARTS
100
AcDbLine
 10
7.642859
 20
5.058056
 30
0.0
 11
7.807241
 21
5.028599
 31
0.0
  0
LINE
  5
EE0
100
AcDbEntity
  8
PARTS
100
AcDbLine
 10
7.638979
 20
5.036401
 30
0.0
 11
7.80336
 21
5.006944
 31
0.0
  0
LINE
  5
EE1
100
AcDbEntity
  8
PARTS
100
AcDbLine
 10
8.02161
 20
5.565
 30
0.0
 11
8.13161
 21
5.565
 31
0.0
  0
LINE
  5
EE2
100
AcDbEntity
  8
PARTS
100
AcDbLine
 10
8.13161
 20
5.565
 30
0.0
 11
8.13161
 21
5.395
 31
0.0
  0
LINE
  5
EE3
100
AcDbEntity
  8
PARTS
100
AcDbLine
 10
8.02161
 20
5.565
 30
0.0
 11
8.02161
 21
5.395
 31
0.0
  0
LINE
  5
EE4
100
AcDbEntity
  8
PARTS
100
AcDbLine
 10
8.02161
 20
5.395
 30
0.0
 11
8.13161
 21
5.395
 31
0.0
  0
LINE
  5
EE5
100
AcDbEntity
  8
PARTS
100
AcDbLine
 10
7.84661
 20
5.245
 30
0.0
 11
7.95661
 21
5.245
 31
0.0
  0
LINE
  5
EE6
100
AcDbEntity
  8
PARTS
100
AcDbLine
 10
7.84661
 20
5.415
 30
0.0
 11
7.84661
 21
5.245
 31
0.0
  0
LINE
  5
EE7
100
AcDbEntity
  8
PARTS
100
AcDbLine
 10
7.95661
 20
5.415
 30
0.0
 11
7.95661
 21
5.245
 31
0.0
  0
LINE
  5
EE8
100
AcDbEntity
  8
PARTS
100
AcDbLine
 10
7.84661
 20
5.415
 30
0.0
 11
7.95661
 21
5.415
 31
0.0
  0
CIRCLE
  5
EE9
100
AcDbEntity
  8
PARTS
100
AcDbCircle
 10
8.25511
 20
5.48
 30
0.0
 40
0.0835
  0
CIRCLE
  5
EEA
100
AcDbEntity
  8
PARTS
100
AcDbCircle
 10
7.72311
 20
5.33
 30
0.0
 40
0.0835
  0
TEXT
  5
EEB
100
AcDbEntity
  8
PARTS
100
AcDbText
 10
8.01661
 20
5.580065
 30
0.0
 40
0.06
  1
D6
  7
ROMANS
 72
     4
 11
8.07661
 21
5.610065
 31
0.0
100
AcDbText
  0
TEXT
  5
EEC
100
AcDbEntity
  8
PARTS
100
AcDbText
 10
7.84161
 20
5.430065
 30
0.0
 40
0.06
  1
D2
  7
ROMANS
 72
     4
 11
7.90161
 21
5.460065
 31
0.0
100
AcDbText
  0
LINE
  5
EED
100
AcDbEntity
  8
PARTS
100
AcDbLine
 10
8.174928
 20
5.454231
 30
0.0
 11
8.325883
 21
5.525656
 31
0.0
  0
LINE
  5
EEE
100
AcDbEntity
  8
PARTS
100
AcDbLine
 10
8.184337
 20
5.434344
 30
0.0
 11
8.335292
 21
5.505769
 31
0.0
  0
LINE
  5
EEF
100
AcDbEntity
  8
PARTS
100
AcDbLine
 10
7.642859
 20
5.355556
 30
0.0
 11
7.807241
 21
5.326099
 31
0.0
  0
LINE
  5
EF0
100
AcDbEntity
  8
PARTS
100
AcDbLine
 10
7.638979
 20
5.333901
 30
0.0
 11
7.80336
 21
5.304444
 31
0.0
  0
LINE
  5
EF1
100
AcDbEntity
  8
PARTS
100
AcDbLine
 10
8.02161
 20
5.8625
 30
0.0
 11
8.13161
 21
5.8625
 31
0.0
  0
LINE
  5
EF2
100
AcDbEntity
  8
PARTS
100
AcDbLine
 10
8.13161
 20
5.8625
 30
0.0
 11
8.13161
 21
5.6925
 31
0.0
  0
LINE
  5
EF3
100
AcDbEntity
  8
PARTS
100
AcDbLine
 10
8.02161
 20
5.8625
 30
0.0
 11
8.02161
 21
5.6925
 31
0.0
  0
LINE
  5
EF4
100
AcDbEntity
  8
PARTS
100
AcDbLine
 10
8.02161
 20
5.6925
 30
0.0
 11
8.13161
 21
5.6925
 31
0.0
  0
LINE
  5
EF5
100
AcDbEntity
  8
PARTS
100
AcDbLine
 10
7.84661
 20
5.5425
 30
0.0
 11
7.95661
 21
5.5425
 31
0.0
  0
LINE
  5
EF6
100
AcDbEntity
  8
PARTS
100
AcDbLine
 10
7.84661
 20
5.7125
 30
0.0
 11
7.84661
 21
5.5425
 31
0.0
  0
LINE
  5
EF7
100
AcDbEntity
  8
PARTS
100
AcDbLine
 10
7.95661
 20
5.7125
 30
0.0
 11
7.95661
 21
5.5425
 31
0.0
  0
LINE
  5
EF8
100
AcDbEntity
  8
PARTS
100
AcDbLine
 10
7.84661
 20
5.7125
 30
0.0
 11
7.95661
 21
5.7125
 31
0.0
  0
CIRCLE
  5
EF9
100
AcDbEntity
  8
PARTS
100
AcDbCircle
 10
8.25511
 20
5.7775
 30
0.0
 40
0.0835
  0
CIRCLE
  5
EFA
100
AcDbEntity
  8
PARTS
100
AcDbCircle
 10
7.72311
 20
5.6275
 30
0.0
 40
0.0835
  0
TEXT
  5
EFB
100
AcDbEntity
  8
PARTS
100
AcDbText
 10
8.01661
 20
5.877565
 30
0.0
 40
0.06
  1
D5
  7
ROMANS
 72
     4
 11
8.07661
 21
5.907565
 31
0.0
100
AcDbText
  0
TEXT
  5
EFC
100
AcDbEntity
  8
PARTS
100
AcDbText
 10
7.850181
 20
5.727565
 30
0.0
 40
0.06
  1
D1
  7
ROMANS
 72
     4
 11
7.90161
 21
5.757565
 31
0.0
100
AcDbText
  0
LINE
  5
EFD
100
AcDbEntity
  8
PARTS
100
AcDbLine
 10
8.174928
 20
5.751731
 30
0.0
 11
8.325883
 21
5.823156
 31
0.0
  0
LINE
  5
EFE
100
AcDbEntity
  8
PARTS
100
AcDbLine
 10
8.184337
 20
5.731844
 30
0.0
 11
8.335292
 21
5.803269
 31
0.0
  0
LINE
  5
EFF
100
AcDbEntity
  8
PARTS
100
AcDbLine
 10
7.642859
 20
5.653056
 30
0.0
 11
7.807241
 21
5.623599
 31
0.0
  0
LINE
  5
F00
100
AcDbEntity
  8
PARTS
100
AcDbLine
 10
7.638979
 20
5.631401
 30
0.0
 11
7.80336
 21
5.601944
 31
0.0
  0
LINE
  5
F01
100
AcDbEntity
  8
PARTS
100
AcDbLine
 10
8.02161
 20
6.16
 30
0.0
 11
8.13161
 21
6.16
 31
0.0
  0
LINE
  5
F02
100
AcDbEntity
  8
PARTS
100
AcDbLine
 10
8.13161
 20
6.16
 30
0.0
 11
8.13161
 21
5.99
 31
0.0
  0
LINE
  5
F03
100
AcDbEntity
  8
PARTS
100
AcDbLine
 10
8.02161
 20
6.16
 30
0.0
 11
8.02161
 21
5.99
 31
0.0
  0
LINE
  5
F04
100
AcDbEntity
  8
PARTS
100
AcDbLine
 10
8.02161
 20
5.99
 30
0.0
 11
8.13161
 21
5.99
 31
0.0
  0
LINE
  5
F05
100
AcDbEntity
  8
PARTS
100
AcDbLine
 10
7.84661
 20
5.84
 30
0.0
 11
7.95661
 21
5.84
 31
0.0
  0
LINE
  5
F06
100
AcDbEntity
  8
PARTS
100
AcDbLine
 10
7.84661
 20
6.01
 30
0.0
 11
7.84661
 21
5.84
 31
0.0
  0
LINE
  5
F07
100
AcDbEntity
  8
PARTS
100
AcDbLine
 10
7.95661
 20
6.01
 30
0.0
 11
7.95661
 21
5.84
 31
0.0
  0
LINE
  5
F08
100
AcDbEntity
  8
PARTS
100
AcDbLine
 10
7.84661
 20
6.01
 30
0.0
 11
7.95661
 21
6.01
 31
0.0
  0
CIRCLE
  5
F09
100
AcDbEntity
  8
PARTS
100
AcDbCircle
 10
8.25511
 20
6.075
 30
0.0
 40
0.0835
  0
CIRCLE
  5
F0A
100
AcDbEntity
  8
PARTS
100
AcDbCircle
 10
7.72311
 20
5.925
 30
0.0
 40
0.0835
  0
TEXT
  5
F0B
100
AcDbEntity
  8
PARTS
100
AcDbText
 10
8.015181
 20
6.175065
 30
0.0
 40
0.06
  1
DC
  7
ROMANS
 72
     4
 11
8.07661
 21
6.205065
 31
0.0
100
AcDbText
  0
TEXT
  5
F0C
100
AcDbEntity
  8
PARTS
100
AcDbText
 10
7.840181
 20
6.025065
 30
0.0
 40
0.06
  1
DR
  7
ROMANS
 72
     4
 11
7.90161
 21
6.055065
 31
0.0
100
AcDbText
  0
LINE
  5
F0D
100
AcDbEntity
  8
PARTS
100
AcDbLine
 10
8.174928
 20
6.049231
 30
0.0
 11
8.325883
 21
6.120656
 31
0.0
  0
LINE
  5
F0E
100
AcDbEntity
  8
PARTS
100
AcDbLine
 10
8.184337
 20
6.029344
 30
0.0
 11
8.335292
 21
6.100769
 31
0.0
  0
LINE
  5
F0F
100
AcDbEntity
  8
PARTS
100
AcDbLine
 10
7.642859
 20
5.950556
 30
0.0
 11
7.807241
 21
5.921099
 31
0.0
  0
LINE
  5
F10
100
AcDbEntity
  8
PARTS
100
AcDbLine
 10
7.638979
 20
5.928901
 30
0.0
 11
7.80336
 21
5.899444
 31
0.0
  0
LINE
  5
F11
100
AcDbEntity
  8
PARTS
100
AcDbLine
 10
8.02161
 20
6.4575
 30
0.0
 11
8.13161
 21
6.4575
 31
0.0
  0
LINE
  5
F12
100
AcDbEntity
  8
PARTS
100
AcDbLine
 10
8.13161
 20
6.4575
 30
0.0
 11
8.13161
 21
6.2875
 31
0.0
  0
LINE
  5
F13
100
AcDbEntity
  8
PARTS
100
AcDbLine
 10
8.02161
 20
6.4575
 30
0.0
 11
8.02161
 21
6.2875
 31
0.0
  0
LINE
  5
F14
100
AcDbEntity
  8
PARTS
100
AcDbLine
 10
8.02161
 20
6.2875
 30
0.0
 11
8.13161
 21
6.2875
 31
0.0
  0
LINE
  5
F15
100
AcDbEntity
  8
PARTS
100
AcDbLine
 10
7.84661
 20
6.1375
 30
0.0
 11
7.95661
 21
6.1375
 31
0.0
  0
LINE
  5
F16
100
AcDbEntity
  8
PARTS
100
AcDbLine
 10
7.84661
 20
6.3075
 30
0.0
 11
7.84661
 21
6.1375
 31
0.0
  0
LINE
  5
F17
100
AcDbEntity
  8
PARTS
100
AcDbLine
 10
7.95661
 20
6.3075
 30
0.0
 11
7.95661
 21
6.1375
 31
0.0
  0
LINE
  5
F18
100
AcDbEntity
  8
PARTS
100
AcDbLine
 10
7.84661
 20
6.3075
 30
0.0
 11
7.95661
 21
6.3075
 31
0.0
  0
CIRCLE
  5
F19
100
AcDbEntity
  8
PARTS
100
AcDbCircle
 10
8.25511
 20
6.3725
 30
0.0
 40
0.0835
  0
CIRCLE
  5
F1A
100
AcDbEntity
  8
PARTS
100
AcDbCircle
 10
7.72311
 20
6.2225
 30
0.0
 40
0.0835
  0
TEXT
  5
F1B
100
AcDbEntity
  8
PARTS
100
AcDbText
 10
8.018038
 20
6.472565
 30
0.0
 40
0.06
  1
C8
  7
ROMANS
 72
     4
 11
8.07661
 21
6.502565
 31
0.0
100
AcDbText
  0
TEXT
  5
F1C
100
AcDbEntity
  8
PARTS
100
AcDbText
 10
7.84161
 20
6.322565
 30
0.0
 40
0.06
  1
C4
  7
ROMANS
 72
     4
 11
7.90161
 21
6.352565
 31
0.0
100
AcDbText
  0
LINE
  5
F1D
100
AcDbEntity
  8
PARTS
100
AcDbLine
 10
8.174928
 20
6.346731
 30
0.0
 11
8.325883
 21
6.418156
 31
0.0
  0
LINE
  5
F1E
100
AcDbEntity
  8
PARTS
100
AcDbLine
 10
8.184337
 20
6.326844
 30
0.0
 11
8.335292
 21
6.398269
 31
0.0
  0
LINE
  5
F1F
100
AcDbEntity
  8
PARTS
100
AcDbLine
 10
7.642859
 20
6.248056
 30
0.0
 11
7.807241
 21
6.218599
 31
0.0
  0
LINE
  5
F20
100
AcDbEntity
  8
PARTS
100
AcDbLine
 10
7.638979
 20
6.226401
 30
0.0
 11
7.80336
 21
6.196944
 31
0.0
  0
LINE
  5
F21
100
AcDbEntity
  8
PARTS
100
AcDbLine
 10
8.02161
 20
6.755
 30
0.0
 11
8.13161
 21
6.755
 31
0.0
  0
LINE
  5
F22
100
AcDbEntity
  8
PARTS
100
AcDbLine
 10
8.13161
 20
6.755
 30
0.0
 11
8.13161
 21
6.585
 31
0.0
  0
LINE
  5
F23
100
AcDbEntity
  8
PARTS
100
AcDbLine
 10
8.02161
 20
6.755
 30
0.0
 11
8.02161
 21
6.585
 31
0.0
  0
LINE
  5
F24
100
AcDbEntity
  8
PARTS
100
AcDbLine
 10
8.02161
 20
6.585
 30
0.0
 11
8.13161
 21
6.585
 31
0.0
  0
LINE
  5
F25
100
AcDbEntity
  8
PARTS
100
AcDbLine
 10
7.84661
 20
6.435
 30
0.0
 11
7.95661
 21
6.435
 31
0.0
  0
LINE
  5
F26
100
AcDbEntity
  8
PARTS
100
AcDbLine
 10
7.84661
 20
6.605
 30
0.0
 11
7.84661
 21
6.435
 31
0.0
  0
LINE
  5
F27
100
AcDbEntity
  8
PARTS
100
AcDbLine
 10
7.95661
 20
6.605
 30
0.0
 11
7.95661
 21
6.435
 31
0.0
  0
LINE
  5
F28
100
AcDbEntity
  8
PARTS
100
AcDbLine
 10
7.84661
 20
6.605
 30
0.0
 11
7.95661
 21
6.605
 31
0.0
  0
CIRCLE
  5
F29
100
AcDbEntity
  8
PARTS
100
AcDbCircle
 10
8.25511
 20
6.67
 30
0.0
 40
0.0835
  0
CIRCLE
  5
F2A
100
AcDbEntity
  8
PARTS
100
AcDbCircle
 10
7.72311
 20
6.52
 30
0.0
 40
0.0835
  0
TEXT
  5
F2B
100
AcDbEntity
  8
PARTS
100
AcDbText
 10
8.018038
 20
6.770065
 30
0.0
 40
0.06
  1
C7
  7
ROMANS
 72
     4
 11
8.07661
 21
6.800065
 31
0.0
100
AcDbText
  0
TEXT
  5
F2C
100
AcDbEntity
  8
PARTS
100
AcDbText
 10
7.843038
 20
6.620065
 30
0.0
 40
0.06
  1
C3
  7
ROMANS
 72
     4
 11
7.90161
 21
6.650065
 31
0.0
100
AcDbText
  0
LINE
  5
F2D
100
AcDbEntity
  8
PARTS
100
AcDbLine
 10
8.174928
 20
6.644231
 30
0.0
 11
8.325883
 21
6.715656
 31
0.0
  0
LINE
  5
F2E
100
AcDbEntity
  8
PARTS
100
AcDbLine
 10
8.184337
 20
6.624344
 30
0.0
 11
8.335292
 21
6.695769
 31
0.0
  0
LINE
  5
F2F
100
AcDbEntity
  8
PARTS
100
AcDbLine
 10
7.642859
 20
6.545556
 30
0.0
 11
7.807241
 21
6.516099
 31
0.0
  0
LINE
  5
F30
100
AcDbEntity
  8
PARTS
100
AcDbLine
 10
7.638979
 20
6.523901
 30
0.0
 11
7.80336
 21
6.494444
 31
0.0
  0
LINE
  5
F31
100
AcDbEntity
  8
PARTS
100
AcDbLine
 10
8.02161
 20
7.0525
 30
0.0
 11
8.13161
 21
7.0525
 31
0.0
  0
LINE
  5
F32
100
AcDbEntity
  8
PARTS
100
AcDbLine
 10
8.13161
 20
7.0525
 30
0.0
 11
8.13161
 21
6.8825
 31
0.0
  0
LINE
  5
F33
100
AcDbEntity
  8
PARTS
100
AcDbLine
 10
8.02161
 20
7.0525
 30
0.0
 11
8.02161
 21
6.8825
 31
0.0
  0
LINE
  5
F34
100
AcDbEntity
  8
PARTS
100
AcDbLine
 10
8.02161
 20
6.8825
 30
0.0
 11
8.13161
 21
6.8825
 31
0.0
  0
LINE
  5
F35
100
AcDbEntity
  8
PARTS
100
AcDbLine
 10
7.84661
 20
6.7325
 30
0.0
 11
7.95661
 21
6.7325
 31
0.0
  0
LINE
  5
F36
100
AcDbEntity
  8
PARTS
100
AcDbLine
 10
7.84661
 20
6.9025
 30
0.0
 11
7.84661
 21
6.7325
 31
0.0
  0
LINE
  5
F37
100
AcDbEntity
  8
PARTS
100
AcDbLine
 10
7.95661
 20
6.9025
 30
0.0
 11
7.95661
 21
6.7325
 31
0.0
  0
LINE
  5
F38
100
AcDbEntity
  8
PARTS
100
AcDbLine
 10
7.84661
 20
6.9025
 30
0.0
 11
7.95661
 21
6.9025
 31
0.0
  0
CIRCLE
  5
F39
100
AcDbEntity
  8
PARTS
100
AcDbCircle
 10
8.25511
 20
6.9675
 30
0.0
 40
0.0835
  0
CIRCLE
  5
F3A
100
AcDbEntity
  8
PARTS
100
AcDbCircle
 10
7.72311
 20
6.8175
 30
0.0
 40
0.0835
  0
TEXT
  5
F3B
100
AcDbEntity
  8
PARTS
100
AcDbText
 10
8.018038
 20
7.067565
 30
0.0
 40
0.06
  1
C6
  7
ROMANS
 72
     4
 11
8.07661
 21
7.097565
 31
0.0
100
AcDbText
  0
TEXT
  5
F3C
100
AcDbEntity
  8
PARTS
100
AcDbText
 10
7.843038
 20
6.917565
 30
0.0
 40
0.06
  1
C2
  7
ROMANS
 72
     4
 11
7.90161
 21
6.947565
 31
0.0
100
AcDbText
  0
LINE
  5
F3D
100
AcDbEntity
  8
PARTS
100
AcDbLine
 10
8.174928
 20
6.941731
 30
0.0
 11
8.325883
 21
7.013156
 31
0.0
  0
LINE
  5
F3E
100
AcDbEntity
  8
PARTS
100
AcDbLine
 10
8.184337
 20
6.921844
 30
0.0
 11
8.335292
 21
6.993269
 31
0.0
  0
LINE
  5
F3F
100
AcDbEntity
  8
PARTS
100
AcDbLine
 10
7.642859
 20
6.843056
 30
0.0
 11
7.807241
 21
6.813599
 31
0.0
  0
LINE
  5
F40
100
AcDbEntity
  8
PARTS
100
AcDbLine
 10
7.638979
 20
6.821401
 30
0.0
 11
7.80336
 21
6.791944
 31
0.0
  0
LINE
  5
F41
100
AcDbEntity
  8
PARTS
100
AcDbLine
 10
8.02161
 20
7.35
 30
0.0
 11
8.13161
 21
7.35
 31
0.0
  0
LINE
  5
F42
100
AcDbEntity
  8
PARTS
100
AcDbLine
 10
8.13161
 20
7.35
 30
0.0
 11
8.13161
 21
7.18
 31
0.0
  0
LINE
  5
F43
100
AcDbEntity
  8
PARTS
100
AcDbLine
 10
8.02161
 20
7.35
 30
0.0
 11
8.02161
 21
7.18
 31
0.0
  0
LINE
  5
F44
100
AcDbEntity
  8
PARTS
100
AcDbLine
 10
8.02161
 20
7.18
 30
0.0
 11
8.13161
 21
7.18
 31
0.0
  0
LINE
  5
F45
100
AcDbEntity
  8
PARTS
100
AcDbLine
 10
7.84661
 20
7.03
 30
0.0
 11
7.95661
 21
7.03
 31
0.0
  0
LINE
  5
F46
100
AcDbEntity
  8
PARTS
100
AcDbLine
 10
7.84661
 20
7.2
 30
0.0
 11
7.84661
 21
7.03
 31
0.0
  0
LINE
  5
F47
100
AcDbEntity
  8
PARTS
100
AcDbLine
 10
7.95661
 20
7.2
 30
0.0
 11
7.95661
 21
7.03
 31
0.0
  0
LINE
  5
F48
100
AcDbEntity
  8
PARTS
100
AcDbLine
 10
7.84661
 20
7.2
 30
0.0
 11
7.95661
 21
7.2
 31
0.0
  0
CIRCLE
  5
F49
100
AcDbEntity
  8
PARTS
100
AcDbCircle
 10
8.25511
 20
7.265
 30
0.0
 40
0.0835
  0
CIRCLE
  5
F4A
100
AcDbEntity
  8
PARTS
100
AcDbCircle
 10
7.72311
 20
7.115
 30
0.0
 40
0.0835
  0
TEXT
  5
F4B
100
AcDbEntity
  8
PARTS
100
AcDbText
 10
8.018038
 20
7.365065
 30
0.0
 40
0.06
  1
C5
  7
ROMANS
 72
     4
 11
8.07661
 21
7.395065
 31
0.0
100
AcDbText
  0
TEXT
  5
F4C
100
AcDbEntity
  8
PARTS
100
AcDbText
 10
7.85161
 20
7.215065
 30
0.0
 40
0.06
  1
C1
  7
ROMANS
 72
     4
 11
7.90161
 21
7.245065
 31
0.0
100
AcDbText
  0
LINE
  5
F4D
100
AcDbEntity
  8
PARTS
100
AcDbLine
 10
8.174928
 20
7.239231
 30
0.0
 11
8.325883
 21
7.310656
 31
0.0
  0
LINE
  5
F4E
100
AcDbEntity
  8
PARTS
100
AcDbLine
 10
8.184337
 20
7.219344
 30
0.0
 11
8.335292
 21
7.290769
 31
0.0
  0
LINE
  5
F4F
100
AcDbEntity
  8
PARTS
100
AcDbLine
 10
7.642859
 20
7.140556
 30
0.0
 11
7.807241
 21
7.111099
 31
0.0
  0
LINE
  5
F50
100
AcDbEntity
  8
PARTS
100
AcDbLine
 10
7.638979
 20
7.118901
 30
0.0
 11
7.80336
 21
7.089444
 31
0.0
  0
LINE
  5
F51
100
AcDbEntity
  8
PARTS
100
AcDbLine
 10
8.02161
 20
7.6475
 30
0.0
 11
8.13161
 21
7.6475
 31
0.0
  0
LINE
  5
F52
100
AcDbEntity
  8
PARTS
100
AcDbLine
 10
8.13161
 20
7.6475
 30
0.0
 11
8.13161
 21
7.4775
 31
0.0
  0
LINE
  5
F53
100
AcDbEntity
  8
PARTS
100
AcDbLine
 10
8.02161
 20
7.6475
 30
0.0
 11
8.02161
 21
7.4775
 31
0.0
  0
LINE
  5
F54
100
AcDbEntity
  8
PARTS
100
AcDbLine
 10
8.02161
 20
7.4775
 30
0.0
 11
8.13161
 21
7.4775
 31
0.0
  0
LINE
  5
F55
100
AcDbEntity
  8
PARTS
100
AcDbLine
 10
7.84661
 20
7.3275
 30
0.0
 11
7.95661
 21
7.3275
 31
0.0
  0
LINE
  5
F56
100
AcDbEntity
  8
PARTS
100
AcDbLine
 10
7.84661
 20
7.4975
 30
0.0
 11
7.84661
 21
7.3275
 31
0.0
  0
LINE
  5
F57
100
AcDbEntity
  8
PARTS
100
AcDbLine
 10
7.95661
 20
7.4975
 30
0.0
 11
7.95661
 21
7.3275
 31
0.0
  0
LINE
  5
F58
100
AcDbEntity
  8
PARTS
100
AcDbLine
 10
7.84661
 20
7.4975
 30
0.0
 11
7.95661
 21
7.4975
 31
0.0
  0
CIRCLE
  5
F59
100
AcDbEntity
  8
PARTS
100
AcDbCircle
 10
8.25511
 20
7.5625
 30
0.0
 40
0.0835
  0
CIRCLE
  5
F5A
100
AcDbEntity
  8
PARTS
100
AcDbCircle
 10
7.72311
 20
7.4125
 30
0.0
 40
0.0835
  0
TEXT
  5
F5B
100
AcDbEntity
  8
PARTS
100
AcDbText
 10
8.01661
 20
7.662565
 30
0.0
 40
0.06
  1
CC
  7
ROMANS
 72
     4
 11
8.07661
 21
7.692565
 31
0.0
100
AcDbText
  0
TEXT
  5
F5C
100
AcDbEntity
  8
PARTS
100
AcDbText
 10
7.84161
 20
7.512565
 30
0.0
 40
0.06
  1
CR
  7
ROMANS
 72
     4
 11
7.90161
 21
7.542565
 31
0.0
100
AcDbText
  0
LINE
  5
F5D
100
AcDbEntity
  8
PARTS
100
AcDbLine
 10
8.174928
 20
7.536731
 30
0.0
 11
8.325883
 21
7.608156
 31
0.0
  0
LINE
  5
F5E
100
AcDbEntity
  8
PARTS
100
AcDbLine
 10
8.184337
 20
7.516844
 30
0.0
 11
8.335292
 21
7.588269
 31
0.0
  0
LINE
  5
F5F
100
AcDbEntity
  8
PARTS
100
AcDbLine
 10
7.642859
 20
7.438056
 30
0.0
 11
7.807241
 21
7.408599
 31
0.0
  0
LINE
  5
F60
100
AcDbEntity
  8
PARTS
100
AcDbLine
 10
7.638979
 20
7.416401
 30
0.0
 11
7.80336
 21
7.386944
 31
0.0
  0
LINE
  5
F61
100
AcDbEntity
  8
PARTS
100
AcDbLine
 10
8.02161
 20
7.945
 30
0.0
 11
8.13161
 21
7.945
 31
0.0
  0
LINE
  5
F62
100
AcDbEntity
  8
PARTS
100
AcDbLine
 10
8.13161
 20
7.945
 30
0.0
 11
8.13161
 21
7.775
 31
0.0
  0
LINE
  5
F63
100
AcDbEntity
  8
PARTS
100
AcDbLine
 10
8.02161
 20
7.945
 30
0.0
 11
8.02161
 21
7.775
 31
0.0
  0
LINE
  5
F64
100
AcDbEntity
  8
PARTS
100
AcDbLine
 10
8.02161
 20
7.775
 30
0.0
 11
8.13161
 21
7.775
 31
0.0
  0
LINE
  5
F65
100
AcDbEntity
  8
PARTS
100
AcDbLine
 10
7.84661
 20
7.625
 30
0.0
 11
7.95661
 21
7.625
 31
0.0
  0
LINE
  5
F66
100
AcDbEntity
  8
PARTS
100
AcDbLine
 10
7.84661
 20
7.795
 30
0.0
 11
7.84661
 21
7.625
 31
0.0
  0
LINE
  5
F67
100
AcDbEntity
  8
PARTS
100
AcDbLine
 10
7.95661
 20
7.795
 30
0.0
 11
7.95661
 21
7.625
 31
0.0
  0
LINE
  5
F68
100
AcDbEntity
  8
PARTS
100
AcDbLine
 10
7.84661
 20
7.795
 30
0.0
 11
7.95661
 21
7.795
 31
0.0
  0
CIRCLE
  5
F69
100
AcDbEntity
  8
PARTS
100
AcDbCircle
 10
8.25511
 20
7.86
 30
0.0
 40
0.0835
  0
CIRCLE
  5
F6A
100
AcDbEntity
  8
PARTS
100
AcDbCircle
 10
7.72311
 20
7.71
 30
0.0
 40
0.0835
  0
TEXT
  5
F6B
100
AcDbEntity
  8
PARTS
100
AcDbText
 10
8.01661
 20
7.960065
 30
0.0
 40
0.06
  1
B8
  7
ROMANS
 72
     4
 11
8.07661
 21
7.990065
 31
0.0
100
AcDbText
  0
TEXT
  5
F6C
100
AcDbEntity
  8
PARTS
100
AcDbText
 10
7.840181
 20
7.810065
 30
0.0
 40
0.06
  1
B4
  7
ROMANS
 72
     4
 11
7.90161
 21
7.840065
 31
0.0
100
AcDbText
  0
LINE
  5
F6D
100
AcDbEntity
  8
PARTS
100
AcDbLine
 10
8.174928
 20
7.834231
 30
0.0
 11
8.325883
 21
7.905656
 31
0.0
  0
LINE
  5
F6E
100
AcDbEntity
  8
PARTS
100
AcDbLine
 10
8.184337
 20
7.814344
 30
0.0
 11
8.335292
 21
7.885769
 31
0.0
  0
LINE
  5
F6F
100
AcDbEntity
  8
PARTS
100
AcDbLine
 10
7.642859
 20
7.735556
 30
0.0
 11
7.807241
 21
7.706099
 31
0.0
  0
LINE
  5
F70
100
AcDbEntity
  8
PARTS
100
AcDbLine
 10
7.638979
 20
7.713901
 30
0.0
 11
7.80336
 21
7.684444
 31
0.0
  0
LINE
  5
F71
100
AcDbEntity
  8
PARTS
100
AcDbLine
 10
8.02161
 20
8.2425
 30
0.0
 11
8.13161
 21
8.2425
 31
0.0
  0
LINE
  5
F72
100
AcDbEntity
  8
PARTS
100
AcDbLine
 10
8.13161
 20
8.2425
 30
0.0
 11
8.13161
 21
8.0725
 31
0.0
  0
LINE
  5
F73
100
AcDbEntity
  8
PARTS
100
AcDbLine
 10
8.02161
 20
8.2425
 30
0.0
 11
8.02161
 21
8.0725
 31
0.0
  0
LINE
  5
F74
100
AcDbEntity
  8
PARTS
100
AcDbLine
 10
8.02161
 20
8.0725
 30
0.0
 11
8.13161
 21
8.0725
 31
0.0
  0
LINE
  5
F75
100
AcDbEntity
  8
PARTS
100
AcDbLine
 10
7.84661
 20
7.9225
 30
0.0
 11
7.95661
 21
7.9225
 31
0.0
  0
LINE
  5
F76
100
AcDbEntity
  8
PARTS
100
AcDbLine
 10
7.84661
 20
8.0925
 30
0.0
 11
7.84661
 21
7.9225
 31
0.0
  0
LINE
  5
F77
100
AcDbEntity
  8
PARTS
100
AcDbLine
 10
7.95661
 20
8.0925
 30
0.0
 11
7.95661
 21
7.9225
 31
0.0
  0
LINE
  5
F78
100
AcDbEntity
  8
PARTS
100
AcDbLine
 10
7.84661
 20
8.0925
 30
0.0
 11
7.95661
 21
8.0925
 31
0.0
  0
CIRCLE
  5
F79
100
AcDbEntity
  8
PARTS
100
AcDbCircle
 10
8.25511
 20
8.1575
 30
0.0
 40
0.0835
  0
CIRCLE
  5
F7A
100
AcDbEntity
  8
PARTS
100
AcDbCircle
 10
7.72311
 20
8.0075
 30
0.0
 40
0.0835
  0
TEXT
  5
F7B
100
AcDbEntity
  8
PARTS
100
AcDbText
 10
8.01661
 20
8.257565
 30
0.0
 40
0.06
  1
B7
  7
ROMANS
 72
     4
 11
8.07661
 21
8.287565
 31
0.0
100
AcDbText
  0
TEXT
  5
F7C
100
AcDbEntity
  8
PARTS
100
AcDbText
 10
7.84161
 20
8.107565
 30
0.0
 40
0.06
  1
B3
  7
ROMANS
 72
     4
 11
7.90161
 21
8.137565
 31
0.0
100
AcDbText
  0
LINE
  5
F7D
100
AcDbEntity
  8
PARTS
100
AcDbLine
 10
8.174928
 20
8.131731
 30
0.0
 11
8.325883
 21
8.203156
 31
0.0
  0
LINE
  5
F7E
100
AcDbEntity
  8
PARTS
100
AcDbLine
 10
8.184337
 20
8.111844
 30
0.0
 11
8.335292
 21
8.183269
 31
0.0
  0
LINE
  5
F7F
100
AcDbEntity
  8
PARTS
100
AcDbLine
 10
7.642859
 20
8.033056
 30
0.0
 11
7.807241
 21
8.003599
 31
0.0
  0
LINE
  5
F80
100
AcDbEntity
  8
PARTS
100
AcDbLine
 10
7.638979
 20
8.011401
 30
0.0
 11
7.80336
 21
7.981944
 31
0.0
  0
LINE
  5
F81
100
AcDbEntity
  8
PARTS
100
AcDbLine
 10
8.02161
 20
8.54
 30
0.0
 11
8.13161
 21
8.54
 31
0.0
  0
LINE
  5
F82
100
AcDbEntity
  8
PARTS
100
AcDbLine
 10
8.13161
 20
8.54
 30
0.0
 11
8.13161
 21
8.37
 31
0.0
  0
LINE
  5
F83
100
AcDbEntity
  8
PARTS
100
AcDbLine
 10
8.02161
 20
8.54
 30
0.0
 11
8.02161
 21
8.37
 31
0.0
  0
LINE
  5
F84
100
AcDbEntity
  8
PARTS
100
AcDbLine
 10
8.02161
 20
8.37
 30
0.0
 11
8.13161
 21
8.37
 31
0.0
  0
LINE
  5
F85
100
AcDbEntity
  8
PARTS
100
AcDbLine
 10
7.84661
 20
8.22
 30
0.0
 11
7.95661
 21
8.22
 31
0.0
  0
LINE
  5
F86
100
AcDbEntity
  8
PARTS
100
AcDbLine
 10
7.84661
 20
8.39
 30
0.0
 11
7.84661
 21
8.22
 31
0.0
  0
LINE
  5
F87
100
AcDbEntity
  8
PARTS
100
AcDbLine
 10
7.95661
 20
8.39
 30
0.0
 11
7.95661
 21
8.22
 31
0.0
  0
LINE
  5
F88
100
AcDbEntity
  8
PARTS
100
AcDbLine
 10
7.84661
 20
8.39
 30
0.0
 11
7.95661
 21
8.39
 31
0.0
  0
CIRCLE
  5
F89
100
AcDbEntity
  8
PARTS
100
AcDbCircle
 10
8.25511
 20
8.455
 30
0.0
 40
0.0835
  0
CIRCLE
  5
F8A
100
AcDbEntity
  8
PARTS
100
AcDbCircle
 10
7.72311
 20
8.305
 30
0.0
 40
0.0835
  0
TEXT
  5
F8B
100
AcDbEntity
  8
PARTS
100
AcDbText
 10
8.01661
 20
8.555065
 30
0.0
 40
0.06
  1
B6
  7
ROMANS
 72
     4
 11
8.07661
 21
8.585065
 31
0.0
100
AcDbText
  0
TEXT
  5
F8C
100
AcDbEntity
  8
PARTS
100
AcDbText
 10
7.84161
 20
8.405065
 30
0.0
 40
0.06
  1
B2
  7
ROMANS
 72
     4
 11
7.90161
 21
8.435065
 31
0.0
100
AcDbText
  0
LINE
  5
F8D
100
AcDbEntity
  8
PARTS
100
AcDbLine
 10
8.174928
 20
8.429231
 30
0.0
 11
8.325883
 21
8.500656
 31
0.0
  0
LINE
  5
F8E
100
AcDbEntity
  8
PARTS
100
AcDbLine
 10
8.184337
 20
8.409344
 30
0.0
 11
8.335292
 21
8.480769
 31
0.0
  0
LINE
  5
F8F
100
AcDbEntity
  8
PARTS
100
AcDbLine
 10
7.642859
 20
8.330556
 30
0.0
 11
7.807241
 21
8.301099
 31
0.0
  0
LINE
  5
F90
100
AcDbEntity
  8
PARTS
100
AcDbLine
 10
7.638979
 20
8.308901
 30
0.0
 11
7.80336
 21
8.279444
 31
0.0
  0
LINE
  5
F91
100
AcDbEntity
  8
PARTS
100
AcDbLine
 10
8.02161
 20
8.8375
 30
0.0
 11
8.13161
 21
8.8375
 31
0.0
  0
LINE
  5
F92
100
AcDbEntity
  8
PARTS
100
AcDbLine
 10
8.13161
 20
8.8375
 30
0.0
 11
8.13161
 21
8.6675
 31
0.0
  0
LINE
  5
F93
100
AcDbEntity
  8
PARTS
100
AcDbLine
 10
8.02161
 20
8.8375
 30
0.0
 11
8.02161
 21
8.6675
 31
0.0
  0
LINE
  5
F94
100
AcDbEntity
  8
PARTS
100
AcDbLine
 10
8.02161
 20
8.6675
 30
0.0
 11
8.13161
 21
8.6675
 31
0.0
  0
LINE
  5
F95
100
AcDbEntity
  8
PARTS
100
AcDbLine
 10
7.84661
 20
8.5175
 30
0.0
 11
7.95661
 21
8.5175
 31
0.0
  0
LINE
  5
F96
100
AcDbEntity
  8
PARTS
100
AcDbLine
 10
7.84661
 20
8.6875
 30
0.0
 11
7.84661
 21
8.5175
 31
0.0
  0
LINE
  5
F97
100
AcDbEntity
  8
PARTS
100
AcDbLine
 10
7.95661
 20
8.6875
 30
0.0
 11
7.95661
 21
8.5175
 31
0.0
  0
LINE
  5
F98
100
AcDbEntity
  8
PARTS
100
AcDbLine
 10
7.84661
 20
8.6875
 30
0.0
 11
7.95661
 21
8.6875
 31
0.0
  0
CIRCLE
  5
F99
100
AcDbEntity
  8
PARTS
100
AcDbCircle
 10
8.25511
 20
8.7525
 30
0.0
 40
0.0835
  0
CIRCLE
  5
F9A
100
AcDbEntity
  8
PARTS
100
AcDbCircle
 10
7.72311
 20
8.6025
 30
0.0
 40
0.0835
  0
TEXT
  5
F9B
100
AcDbEntity
  8
PARTS
100
AcDbText
 10
8.01661
 20
8.852565
 30
0.0
 40
0.06
  1
B5
  7
ROMANS
 72
     4
 11
8.07661
 21
8.882565
 31
0.0
100
AcDbText
  0
TEXT
  5
F9C
100
AcDbEntity
  8
PARTS
100
AcDbText
 10
7.850181
 20
8.702565
 30
0.0
 40
0.06
  1
B1
  7
ROMANS
 72
     4
 11
7.90161
 21
8.732565
 31
0.0
100
AcDbText
  0
LINE
  5
F9D
100
AcDbEntity
  8
PARTS
100
AcDbLine
 10
8.174928
 20
8.726731
 30
0.0
 11
8.325883
 21
8.798156
 31
0.0
  0
LINE
  5
F9E
100
AcDbEntity
  8
PARTS
100
AcDbLine
 10
8.184337
 20
8.706844
 30
0.0
 11
8.335292
 21
8.778269
 31
0.0
  0
LINE
  5
F9F
100
AcDbEntity
  8
PARTS
100
AcDbLine
 10
7.642859
 20
8.628056
 30
0.0
 11
7.807241
 21
8.598599
 31
0.0
  0
LINE
  5
FA0
100
AcDbEntity
  8
PARTS
100
AcDbLine
 10
7.638979
 20
8.606401
 30
0.0
 11
7.80336
 21
8.576944
 31
0.0
  0
LINE
  5
FA1
100
AcDbEntity
  8
PARTS
100
AcDbLine
 10
8.02161
 20
9.135
 30
0.0
 11
8.13161
 21
9.135
 31
0.0
  0
LINE
  5
FA2
100
AcDbEntity
  8
PARTS
100
AcDbLine
 10
8.13161
 20
9.135
 30
0.0
 11
8.13161
 21
8.965
 31
0.0
  0
LINE
  5
FA3
100
AcDbEntity
  8
PARTS
100
AcDbLine
 10
8.02161
 20
9.135
 30
0.0
 11
8.02161
 21
8.965
 31
0.0
  0
LINE
  5
FA4
100
AcDbEntity
  8
PARTS
100
AcDbLine
 10
8.02161
 20
8.965
 30
0.0
 11
8.13161
 21
8.965
 31
0.0
  0
LINE
  5
FA5
100
AcDbEntity
  8
PARTS
100
AcDbLine
 10
7.84661
 20
8.815
 30
0.0
 11
7.95661
 21
8.815
 31
0.0
  0
LINE
  5
FA6
100
AcDbEntity
  8
PARTS
100
AcDbLine
 10
7.84661
 20
8.985
 30
0.0
 11
7.84661
 21
8.815
 31
0.0
  0
LINE
  5
FA7
100
AcDbEntity
  8
PARTS
100
AcDbLine
 10
7.95661
 20
8.985
 30
0.0
 11
7.95661
 21
8.815
 31
0.0
  0
LINE
  5
FA8
100
AcDbEntity
  8
PARTS
100
AcDbLine
 10
7.84661
 20
8.985
 30
0.0
 11
7.95661
 21
8.985
 31
0.0
  0
CIRCLE
  5
FA9
100
AcDbEntity
  8
PARTS
100
AcDbCircle
 10
8.25511
 20
9.05
 30
0.0
 40
0.0835
  0
CIRCLE
  5
FAA
100
AcDbEntity
  8
PARTS
100
AcDbCircle
 10
7.72311
 20
8.9
 30
0.0
 40
0.0835
  0
TEXT
  5
FAB
100
AcDbEntity
  8
PARTS
100
AcDbText
 10
8.015181
 20
9.150065
 30
0.0
 40
0.06
  1
BC
  7
ROMANS
 72
     4
 11
8.07661
 21
9.180065
 31
0.0
100
AcDbText
  0
TEXT
  5
FAC
100
AcDbEntity
  8
PARTS
100
AcDbText
 10
7.840181
 20
9.000065
 30
0.0
 40
0.06
  1
BR
  7
ROMANS
 72
     4
 11
7.90161
 21
9.030065
 31
0.0
100
AcDbText
  0
LINE
  5
FAD
100
AcDbEntity
  8
PARTS
100
AcDbLine
 10
8.174928
 20
9.024231
 30
0.0
 11
8.325883
 21
9.095656
 31
0.0
  0
LINE
  5
FAE
100
AcDbEntity
  8
PARTS
100
AcDbLine
 10
8.184337
 20
9.004344
 30
0.0
 11
8.335292
 21
9.075769
 31
0.0
  0
LINE
  5
FAF
100
AcDbEntity
  8
PARTS
100
AcDbLine
 10
7.642859
 20
8.925556
 30
0.0
 11
7.807241
 21
8.896099
 31
0.0
  0
LINE
  5
FB0
100
AcDbEntity
  8
PARTS
100
AcDbLine
 10
7.638979
 20
8.903901
 30
0.0
 11
7.80336
 21
8.874444
 31
0.0
  0
LINE
  5
FB1
100
AcDbEntity
  8
PARTS
100
AcDbLine
 10
8.02161
 20
9.4325
 30
0.0
 11
8.13161
 21
9.4325
 31
0.0
  0
LINE
  5
FB2
100
AcDbEntity
  8
PARTS
100
AcDbLine
 10
8.13161
 20
9.4325
 30
0.0
 11
8.13161
 21
9.2625
 31
0.0
  0
LINE
  5
FB3
100
AcDbEntity
  8
PARTS
100
AcDbLine
 10
8.02161
 20
9.4325
 30
0.0
 11
8.02161
 21
9.2625
 31
0.0
  0
LINE
  5
FB4
100
AcDbEntity
  8
PARTS
100
AcDbLine
 10
8.02161
 20
9.2625
 30
0.0
 11
8.13161
 21
9.2625
 31
0.0
  0
LINE
  5
FB5
100
AcDbEntity
  8
PARTS
100
AcDbLine
 10
7.84661
 20
9.1125
 30
0.0
 11
7.95661
 21
9.1125
 31
0.0
  0
LINE
  5
FB6
100
AcDbEntity
  8
PARTS
100
AcDbLine
 10
7.84661
 20
9.2825
 30
0.0
 11
7.84661
 21
9.1125
 31
0.0
  0
LINE
  5
FB7
100
AcDbEntity
  8
PARTS
100
AcDbLine
 10
7.95661
 20
9.2825
 30
0.0
 11
7.95661
 21
9.1125
 31
0.0
  0
LINE
  5
FB8
100
AcDbEntity
  8
PARTS
100
AcDbLine
 10
7.84661
 20
9.2825
 30
0.0
 11
7.95661
 21
9.2825
 31
0.0
  0
CIRCLE
  5
FB9
100
AcDbEntity
  8
PARTS
100
AcDbCircle
 10
8.25511
 20
9.3475
 30
0.0
 40
0.0835
  0
CIRCLE
  5
FBA
100
AcDbEntity
  8
PARTS
100
AcDbCircle
 10
7.72311
 20
9.1975
 30
0.0
 40
0.0835
  0
TEXT
  5
FBB
100
AcDbEntity
  8
PARTS
100
AcDbText
 10
8.025181
 20
9.447565
 30
0.0
 40
0.06
  1
A8
  7
ROMANS
 72
     4
 11
8.07661
 21
9.477565
 31
0.0
100
AcDbText
  0
TEXT
  5
FBC
100
AcDbEntity
  8
PARTS
100
AcDbText
 10
7.848753
 20
9.297565
 30
0.0
 40
0.06
  1
A4
  7
ROMANS
 72
     4
 11
7.90161
 21
9.327565
 31
0.0
100
AcDbText
  0
LINE
  5
FBD
100
AcDbEntity
  8
PARTS
100
AcDbLine
 10
8.174928
 20
9.321731
 30
0.0
 11
8.325883
 21
9.393156
 31
0.0
  0
LINE
  5
FBE
100
AcDbEntity
  8
PARTS
100
AcDbLine
 10
8.184337
 20
9.301844
 30
0.0
 11
8.335292
 21
9.373269
 31
0.0
  0
LINE
  5
FBF
100
AcDbEntity
  8
PARTS
100
AcDbLine
 10
7.642859
 20
9.223056
 30
0.0
 11
7.807241
 21
9.193599
 31
0.0
  0
LINE
  5
FC0
100
AcDbEntity
  8
PARTS
100
AcDbLine
 10
7.638979
 20
9.201401
 30
0.0
 11
7.80336
 21
9.171944
 31
0.0
  0
LINE
  5
FC1
100
AcDbEntity
  8
PARTS
100
AcDbLine
 10
8.02161
 20
9.73
 30
0.0
 11
8.13161
 21
9.73
 31
0.0
  0
LINE
  5
FC2
100
AcDbEntity
  8
PARTS
100
AcDbLine
 10
8.13161
 20
9.73
 30
0.0
 11
8.13161
 21
9.56
 31
0.0
  0
LINE
  5
FC3
100
AcDbEntity
  8
PARTS
100
AcDbLine
 10
8.02161
 20
9.73
 30
0.0
 11
8.02161
 21
9.56
 31
0.0
  0
LINE
  5
FC4
100
AcDbEntity
  8
PARTS
100
AcDbLine
 10
8.02161
 20
9.56
 30
0.0
 11
8.13161
 21
9.56
 31
0.0
  0
LINE
  5
FC5
100
AcDbEntity
  8
PARTS
100
AcDbLine
 10
7.84661
 20
9.41
 30
0.0
 11
7.95661
 21
9.41
 31
0.0
  0
LINE
  5
FC6
100
AcDbEntity
  8
PARTS
100
AcDbLine
 10
7.84661
 20
9.58
 30
0.0
 11
7.84661
 21
9.41
 31
0.0
  0
LINE
  5
FC7
100
AcDbEntity
  8
PARTS
100
AcDbLine
 10
7.95661
 20
9.58
 30
0.0
 11
7.95661
 21
9.41
 31
0.0
  0
LINE
  5
FC8
100
AcDbEntity
  8
PARTS
100
AcDbLine
 10
7.84661
 20
9.58
 30
0.0
 11
7.95661
 21
9.58
 31
0.0
  0
CIRCLE
  5
FC9
100
AcDbEntity
  8
PARTS
100
AcDbCircle
 10
8.25511
 20
9.645
 30
0.0
 40
0.0835
  0
CIRCLE
  5
FCA
100
AcDbEntity
  8
PARTS
100
AcDbCircle
 10
7.72311
 20
9.495
 30
0.0
 40
0.0835
  0
TEXT
  5
FCB
100
AcDbEntity
  8
PARTS
100
AcDbText
 10
8.025181
 20
9.745065
 30
0.0
 40
0.06
  1
A7
  7
ROMANS
 72
     4
 11
8.07661
 21
9.775065
 31
0.0
100
AcDbText
  0
TEXT
  5
FCC
100
AcDbEntity
  8
PARTS
100
AcDbText
 10
7.850181
 20
9.595065
 30
0.0
 40
0.06
  1
A3
  7
ROMANS
 72
     4
 11
7.90161
 21
9.625065
 31
0.0
100
AcDbText
  0
LINE
  5
FCD
100
AcDbEntity
  8
PARTS
100
AcDbLine
 10
8.174928
 20
9.619231
 30
0.0
 11
8.325883
 21
9.690656
 31
0.0
  0
LINE
  5
FCE
100
AcDbEntity
  8
PARTS
100
AcDbLine
 10
8.184337
 20
9.599344
 30
0.0
 11
8.335292
 21
9.670769
 31
0.0
  0
LINE
  5
FCF
100
AcDbEntity
  8
PARTS
100
AcDbLine
 10
7.642859
 20
9.520556
 30
0.0
 11
7.807241
 21
9.491099
 31
0.0
  0
LINE
  5
FD0
100
AcDbEntity
  8
PARTS
100
AcDbLine
 10
7.638979
 20
9.498901
 30
0.0
 11
7.80336
 21
9.469444
 31
0.0
  0
LINE
  5
FD1
100
AcDbEntity
  8
PARTS
100
AcDbLine
 10
8.02161
 20
10.0275
 30
0.0
 11
8.13161
 21
10.0275
 31
0.0
  0
LINE
  5
FD2
100
AcDbEntity
  8
PARTS
100
AcDbLine
 10
8.13161
 20
10.0275
 30
0.0
 11
8.13161
 21
9.8575
 31
0.0
  0
LINE
  5
FD3
100
AcDbEntity
  8
PARTS
100
AcDbLine
 10
8.02161
 20
10.0275
 30
0.0
 11
8.02161
 21
9.8575
 31
0.0
  0
LINE
  5
FD4
100
AcDbEntity
  8
PARTS
100
AcDbLine
 10
8.02161
 20
9.8575
 30
0.0
 11
8.13161
 21
9.8575
 31
0.0
  0
LINE
  5
FD5
100
AcDbEntity
  8
PARTS
100
AcDbLine
 10
7.84661
 20
9.7075
 30
0.0
 11
7.95661
 21
9.7075
 31
0.0
  0
LINE
  5
FD6
100
AcDbEntity
  8
PARTS
100
AcDbLine
 10
7.84661
 20
9.8775
 30
0.0
 11
7.84661
 21
9.7075
 31
0.0
  0
LINE
  5
FD7
100
AcDbEntity
  8
PARTS
100
AcDbLine
 10
7.95661
 20
9.8775
 30
0.0
 11
7.95661
 21
9.7075
 31
0.0
  0
LINE
  5
FD8
100
AcDbEntity
  8
PARTS
100
AcDbLine
 10
7.84661
 20
9.8775
 30
0.0
 11
7.95661
 21
9.8775
 31
0.0
  0
CIRCLE
  5
FD9
100
AcDbEntity
  8
PARTS
100
AcDbCircle
 10
8.25511
 20
9.9425
 30
0.0
 40
0.0835
  0
CIRCLE
  5
FDA
100
AcDbEntity
  8
PARTS
100
AcDbCircle
 10
7.72311
 20
9.7925
 30
0.0
 40
0.0835
  0
TEXT
  5
FDB
100
AcDbEntity
  8
PARTS
100
AcDbText
 10
8.025181
 20
10.042565
 30
0.0
 40
0.06
  1
A6
  7
ROMANS
 72
     4
 11
8.07661
 21
10.072565
 31
0.0
100
AcDbText
  0
TEXT
  5
FDC
100
AcDbEntity
  8
PARTS
100
AcDbText
 10
7.850181
 20
9.892565
 30
0.0
 40
0.06
  1
A2
  7
ROMANS
 72
     4
 11
7.90161
 21
9.922565
 31
0.0
100
AcDbText
  0
LINE
  5
FDD
100
AcDbEntity
  8
PARTS
100
AcDbLine
 10
8.174928
 20
9.916731
 30
0.0
 11
8.325883
 21
9.988156
 31
0.0
  0
LINE
  5
FDE
100
AcDbEntity
  8
PARTS
100
AcDbLine
 10
8.184337
 20
9.896844
 30
0.0
 11
8.335292
 21
9.968269
 31
0.0
  0
LINE
  5
FDF
100
AcDbEntity
  8
PARTS
100
AcDbLine
 10
7.642859
 20
9.818056
 30
0.0
 11
7.807241
 21
9.788599
 31
0.0
  0
LINE
  5
FE0
100
AcDbEntity
  8
PARTS
100
AcDbLine
 10
7.638979
 20
9.796401
 30
0.0
 11
7.80336
 21
9.766944
 31
0.0
  0
LINE
  5
FE1
100
AcDbEntity
  8
PARTS
100
AcDbLine
 10
8.02161
 20
10.325
 30
0.0
 11
8.13161
 21
10.325
 31
0.0
  0
LINE
  5
FE2
100
AcDbEntity
  8
PARTS
100
AcDbLine
 10
8.13161
 20
10.325
 30
0.0
 11
8.13161
 21
10.155
 31
0.0
  0
LINE
  5
FE3
100
AcDbEntity
  8
PARTS
100
AcDbLine
 10
8.02161
 20
10.325
 30
0.0
 11
8.02161
 21
10.155
 31
0.0
  0
LINE
  5
FE4
100
AcDbEntity
  8
PARTS
100
AcDbLine
 10
8.02161
 20
10.155
 30
0.0
 11
8.13161
 21
10.155
 31
0.0
  0
LINE
  5
FE5
100
AcDbEntity
  8
PARTS
100
AcDbLine
 10
7.84661
 20
10.005
 30
0.0
 11
7.95661
 21
10.005
 31
0.0
  0
LINE
  5
FE6
100
AcDbEntity
  8
PARTS
100
AcDbLine
 10
7.84661
 20
10.175
 30
0.0
 11
7.84661
 21
10.005
 31
0.0
  0
LINE
  5
FE7
100
AcDbEntity
  8
PARTS
100
AcDbLine
 10
7.95661
 20
10.175
 30
0.0
 11
7.95661
 21
10.005
 31
0.0
  0
LINE
  5
FE8
100
AcDbEntity
  8
PARTS
100
AcDbLine
 10
7.84661
 20
10.175
 30
0.0
 11
7.95661
 21
10.175
 31
0.0
  0
CIRCLE
  5
FE9
100
AcDbEntity
  8
PARTS
100
AcDbCircle
 10
8.25511
 20
10.24
 30
0.0
 40
0.0835
  0
CIRCLE
  5
FEA
100
AcDbEntity
  8
PARTS
100
AcDbCircle
 10
7.72311
 20
10.09
 30
0.0
 40
0.0835
  0
TEXT
  5
FEB
100
AcDbEntity
  8
PARTS
100
AcDbText
 10
8.025181
 20
10.340065
 30
0.0
 40
0.06
  1
A5
  7
ROMANS
 72
     4
 11
8.07661
 21
10.370065
 31
0.0
100
AcDbText
  0
TEXT
  5
FEC
100
AcDbEntity
  8
PARTS
100
AcDbText
 10
7.858753
 20
10.190065
 30
0.0
 40
0.06
  1
A1
  7
ROMANS
 72
     4
 11
7.90161
 21
10.220065
 31
0.0
100
AcDbText
  0
LINE
  5
FED
100
AcDbEntity
  8
PARTS
100
AcDbLine
 10
8.174928
 20
10.214231
 30
0.0
 11
8.325883
 21
10.285656
 31
0.0
  0
LINE
  5
FEE
100
AcDbEntity
  8
PARTS
100
AcDbLine
 10
8.184337
 20
10.194344
 30
0.0
 11
8.335292
 21
10.265769
 31
0.0
  0
LINE
  5
FEF
100
AcDbEntity
  8
PARTS
100
AcDbLine
 10
7.642859
 20
10.115556
 30
0.0
 11
7.807241
 21
10.086099
 31
0.0
  0
LINE
  5
FF0
100
AcDbEntity
  8
PARTS
100
AcDbLine
 10
7.638979
 20
10.093901
 30
0.0
 11
7.80336
 21
10.064444
 31
0.0
  0
LINE
  5
FF1
100
AcDbEntity
  8
PARTS
100
AcDbLine
 10
7.638979
 20
10.391401
 30
0.0
 11
7.80336
 21
10.361944
 31
0.0
  0
LINE
  5
FF2
100
AcDbEntity
  8
PARTS
100
AcDbLine
 10
7.642859
 20
10.413056
 30
0.0
 11
7.807241
 21
10.383599
 31
0.0
  0
LINE
  5
FF3
100
AcDbEntity
  8
PARTS
100
AcDbLine
 10
8.184337
 20
10.491844
 30
0.0
 11
8.335292
 21
10.563269
 31
0.0
  0
LINE
  5
FF4
100
AcDbEntity
  8
PARTS
100
AcDbLine
 10
8.174928
 20
10.511731
 30
0.0
 11
8.325883
 21
10.583156
 31
0.0
  0
TEXT
  5
FF5
100
AcDbEntity
  8
PARTS
100
AcDbText
 10
7.848753
 20
10.487565
 30
0.0
 40
0.06
  1
AR
  7
ROMANS
 72
     4
 11
7.90161
 21
10.517565
 31
0.0
100
AcDbText
  0
TEXT
  5
FF6
100
AcDbEntity
  8
PARTS
100
AcDbText
 10
8.023753
 20
10.637565
 30
0.0
 40
0.06
  1
AC
  7
ROMANS
 72
     4
 11
8.07661
 21
10.667565
 31
0.0
100
AcDbText
  0
CIRCLE
  5
FF7
100
AcDbEntity
  8
PARTS
100
AcDbCircle
 10
7.72311
 20
10.3875
 30
0.0
 40
0.0835
  0
CIRCLE
  5
FF8
100
AcDbEntity
  8
PARTS
100
AcDbCircle
 10
8.25511
 20
10.5375
 30
0.0
 40
0.0835
  0
LINE
  5
FF9
100
AcDbEntity
  8
PARTS
100
AcDbLine
 10
7.84661
 20
10.4725
 30
0.0
 11
7.95661
 21
10.4725
 31
0.0
  0
LINE
  5
FFA
100
AcDbEntity
  8
PARTS
100
AcDbLine
 10
7.95661
 20
10.4725
 30
0.0
 11
7.95661
 21
10.3025
 31
0.0
  0
LINE
  5
FFB
100
AcDbEntity
  8
PARTS
100
AcDbLine
 10
7.84661
 20
10.4725
 30
0.0
 11
7.84661
 21
10.3025
 31
0.0
  0
LINE
  5
FFC
100
AcDbEntity
  8
PARTS
100
AcDbLine
 10
7.84661
 20
10.3025
 30
0.0
 11
7.95661
 21
10.3025
 31
0.0
  0
LINE
  5
FFD
100
AcDbEntity
  8
PARTS
100
AcDbLine
 10
8.02161
 20
10.4525
 30
0.0
 11
8.13161
 21
10.4525
 31
0.0
  0
LINE
  5
FFE
100
AcDbEntity
  8
PARTS
100
AcDbLine
 10
8.02161
 20
10.6225
 30
0.0
 11
8.02161
 21
10.4525
 31
0.0
  0
LINE
  5
FFF
100
AcDbEntity
  8
PARTS
100
AcDbLine
 10
8.13161
 20
10.6225
 30
0.0
 11
8.13161
 21
10.4525
 31
0.0
  0
LINE
  5
1000
100
AcDbEntity
  8
PARTS
100
AcDbLine
 10
8.02161
 20
10.6225
 30
0.0
 11
8.13161
 21
10.6225
 31
0.0
  0
LINE
  5
1001
100
AcDbEntity
  8
PARTS
100
AcDbLine
 10
7.60061
 20
4.289
 30
0.0
 11
7.60061
 21
10.984
 31
0.0
  0
LINE
  5
1002
100
AcDbEntity
  8
PARTS
100
AcDbLine
 10
8.37761
 20
4.5365
 30
0.0
 11
7.60061
 21
4.5365
 31
0.0
  0
LINE
  5
1003
100
AcDbEntity
  8
PARTS
100
AcDbLine
 10
8.37761
 20
10.984
 30
0.0
 11
8.37761
 21
4.289
 31
0.0
  0
LINE
  5
1004
100
AcDbEntity
  8
PARTS
100
AcDbLine
 10
7.60061
 20
10.7365
 30
0.0
 11
8.37761
 21
10.7365
 31
0.0
  0
LINE
  5
1014
100
AcDbEntity
  8
PARTS
100
AcDbLine
 10
7.59761
 20
10.846
 30
0.0
 11
7.60061
 21
10.846
 31
0.0
  0
LINE
  5
101A
100
AcDbEntity
  8
PARTS
100
AcDbLine
 10
7.729297
 20
11.024167
 30
0.0
 11
7.752367
 21
10.975877
 31
0.0
  0
LINE
  5
101B
100
AcDbEntity
  8
PARTS
100
AcDbLine
 10
7.757725
 20
11.037749
 30
0.0
 11
7.780783
 21
10.989485
 31
0.0
  0
CIRCLE
  5
101C
100
AcDbEntity
  8
PARTS
100
AcDbCircle
 10
7.79461
 20
10.924
 30
0.0
 40
0.11958
  0
LINE
  5
1024
100
AcDbEntity
  8
PARTS
100
AcDbLine
 10
7.836821
 20
10.872183
 30
0.0
 11
7.808392
 21
10.858602
 31
0.0
  0
LINE
  5
1025
100
AcDbEntity
  8
PARTS
100
AcDbLine
 10
7.780785
 20
10.989486
 30
0.0
 11
7.752356
 21
10.975906
 31
0.0
  0
LINE
  5
1026
100
AcDbEntity
  8
PARTS
100
AcDbLine
 10
7.846583
 20
10.966019
 30
0.0
 11
7.860058
 21
10.93754
 31
0.0
  0
LINE
  5
1027
100
AcDbEntity
  8
PARTS
100
AcDbLine
 10
7.729073
 20
10.910418
 30
0.0
 11
7.742548
 21
10.881939
 31
0.0
  0
LINE
  5
102B
100
AcDbEntity
  8
PARTS
100
AcDbLine
 10
7.780785
 20
10.989486
 30
0.0
 11
7.804154
 21
10.951172
 31
0.0
  0
LINE
  5
102C
100
AcDbEntity
  8
PARTS
100
AcDbLine
 10
7.804154
 20
10.951172
 30
0.0
 11
7.846583
 21
10.966019
 31
0.0
  0
LINE
  5
102D
100
AcDbEntity
  8
PARTS
100
AcDbLine
 10
7.752356
 20
10.975906
 30
0.0
 11
7.76868
 21
10.933435
 31
0.0
  0
LINE
  5
102E
100
AcDbEntity
  8
PARTS
100
AcDbLine
 10
7.76868
 20
10.933435
 30
0.0
 11
7.729073
 21
10.910418
 31
0.0
  0
LINE
  5
102F
100
AcDbEntity
  8
PARTS
100
AcDbLine
 10
7.785501
 20
10.897954
 30
0.0
 11
7.742611
 21
10.881861
 31
0.0
  0
LINE
  5
1030
100
AcDbEntity
  8
PARTS
100
AcDbLine
 10
7.808047
 20
10.858433
 30
0.0
 11
7.785501
 21
10.897954
 31
0.0
  0
LINE
  5
1031
100
AcDbEntity
  8
PARTS
100
AcDbLine
 10
7.836556
 20
10.871846
 30
0.0
 11
7.821687
 21
10.914189
 31
0.0
  0
LINE
  5
1032
100
AcDbEntity
  8
PARTS
100
AcDbLine
 10
7.821687
 20
10.914189
 30
0.0
 11
7.860038
 21
10.937639
 31
0.0
  0
LINE
  5
1033
100
AcDbEntity
  8
PARTS
100
AcDbLine
 10
7.808394
 20
10.858603
 30
0.0
 11
7.831495
 21
10.810251
 31
0.0
  0
LINE
  5
1034
100
AcDbEntity
  8
PARTS
100
AcDbLine
 10
7.835366
 20
10.875234
 30
0.0
 11
7.859923
 21
10.823833
 31
0.0
  0
LINE
  5
1035
100
AcDbEntity
  8
PARTS
100
AcDbLine
 10
7.59761
 20
4.426
 30
0.0
 11
7.60061
 21
4.426
 31
0.0
  0
CIRCLE
  5
1039
100
AcDbEntity
  8
PARTS
100
AcDbCircle
 10
7.79461
 20
4.349
 30
0.0
 40
0.11958
  0
LINE
  5
103A
100
AcDbEntity
  8
PARTS
100
AcDbLine
 10
7.835366
 20
4.397766
 30
0.0
 11
7.859923
 21
4.449167
 31
0.0
  0
LINE
  5
103B
100
AcDbEntity
  8
PARTS
100
AcDbLine
 10
7.757725
 20
4.235251
 30
0.0
 11
7.780783
 21
4.283515
 31
0.0
  0
LINE
  5
103C
100
AcDbEntity
  8
PARTS
100
AcDbLine
 10
7.808394
 20
4.414397
 30
0.0
 11
7.831495
 21
4.462749
 31
0.0
  0
LINE
  5
103D
100
AcDbEntity
  8
PARTS
100
AcDbLine
 10
7.729297
 20
4.248833
 30
0.0
 11
7.752367
 21
4.297123
 31
0.0
  0
LINE
  5
103E
100
AcDbEntity
  8
PARTS
100
AcDbLine
 10
7.821687
 20
4.358811
 30
0.0
 11
7.860038
 21
4.335361
 31
0.0
  0
LINE
  5
103F
100
AcDbEntity
  8
PARTS
100
AcDbLine
 10
7.836556
 20
4.401154
 30
0.0
 11
7.821687
 21
4.358811
 31
0.0
  0
LINE
  5
1040
100
AcDbEntity
  8
PARTS
100
AcDbLine
 10
7.808047
 20
4.414567
 30
0.0
 11
7.785501
 21
4.375046
 31
0.0
  0
LINE
  5
1041
100
AcDbEntity
  8
PARTS
100
AcDbLine
 10
7.785501
 20
4.375046
 30
0.0
 11
7.742611
 21
4.391139
 31
0.0
  0
LINE
  5
1042
100
AcDbEntity
  8
PARTS
100
AcDbLine
 10
7.76868
 20
4.339565
 30
0.0
 11
7.729073
 21
4.362582
 31
0.0
  0
LINE
  5
1043
100
AcDbEntity
  8
PARTS
100
AcDbLine
 10
7.752356
 20
4.297094
 30
0.0
 11
7.76868
 21
4.339565
 31
0.0
  0
LINE
  5
1044
100
AcDbEntity
  8
PARTS
100
AcDbLine
 10
7.804154
 20
4.321828
 30
0.0
 11
7.846583
 21
4.306981
 31
0.0
  0
LINE
  5
1045
100
AcDbEntity
  8
PARTS
100
AcDbLine
 10
7.780785
 20
4.283514
 30
0.0
 11
7.804154
 21
4.321828
 31
0.0
  0
LINE
  5
1046
100
AcDbEntity
  8
PARTS
100
AcDbLine
 10
7.780785
 20
4.283514
 30
0.0
 11
7.752356
 21
4.297094
 31
0.0
  0
LINE
  5
1047
100
AcDbEntity
  8
PARTS
100
AcDbLine
 10
7.836821
 20
4.400817
 30
0.0
 11
7.808392
 21
4.414398
 31
0.0
  0
LINE
  5
1048
100
AcDbEntity
  8
PARTS
100
AcDbLine
 10
7.729073
 20
4.362582
 30
0.0
 11
7.742548
 21
4.391061
 31
0.0
  0
LINE
  5
1049
100
AcDbEntity
  8
PARTS
100
AcDbLine
 10
7.846583
 20
4.306981
 30
0.0
 11
7.860058
 21
4.33546
 31
0.0
  0
ARC
  5
105D
100
AcDbEntity
  8
PARTS
 62
     7
100
AcDbCircle
 10
7.89261
 20
13.625
 30
0.0
 40
0.147887
100
AcDbArc
 50
123.962571
 51
282.134799
  0
CIRCLE
  5
105E
100
AcDbEntity
  8
PARTS
 62
     7
100
AcDbCircle
 10
7.89261
 20
13.625
 30
0.0
 40
0.1575
  0
LINE
  5
105F
100
AcDbEntity
  8
PARTS
100
AcDbLine
 10
7.749983
 20
13.564315
 30
0.0
 11
7.749983
 21
13.564315
 31
0.0
  0
ARC
  5
1060
100
AcDbEntity
  8
PARTS
 62
     7
100
AcDbCircle
 10
7.89261
 20
13.625
 30
0.0
 40
0.147887
100
AcDbArc
 50
303.962571
 51
102.134799
  0
LINE
  5
1061
100
AcDbEntity
  8
PARTS
 62
     7
100
AcDbLine
 10
7.928508
 20
13.46911
 30
0.0
 11
7.805182
 21
13.758965
 31
0.0
  0
LINE
  5
1062
100
AcDbEntity
  8
PARTS
 62
     7
100
AcDbLine
 10
7.980038
 20
13.491035
 30
0.0
 11
7.856711
 21
13.78089
 31
0.0
  0
ARC
  5
1063
100
AcDbEntity
  8
PARTS
 62
     7
100
AcDbCircle
 10
7.89261
 20
3.554
 30
0.0
 40
0.147887
100
AcDbArc
 50
29.916599
 51
188.088826
  0
LINE
  5
1064
100
AcDbEntity
  8
PARTS
 62
     7
100
AcDbLine
 10
8.050644
 20
3.57881
 30
0.0
 11
7.75281
 21
3.476242
 31
0.0
  0
LINE
  5
1065
100
AcDbEntity
  8
PARTS
 62
     7
100
AcDbLine
 10
8.032409
 20
3.631758
 30
0.0
 11
7.734576
 21
3.52919
 31
0.0
  0
ARC
  5
1066
100
AcDbEntity
  8
PARTS
 62
     7
100
AcDbCircle
 10
7.89261
 20
3.554
 30
0.0
 40
0.147887
100
AcDbArc
 50
209.916599
 51
8.088826
  0
CIRCLE
  5
1067
100
AcDbEntity
  8
PARTS
 62
     7
100
AcDbCircle
 10
7.89261
 20
3.554
 30
0.0
 40
0.1575
  0
LINE
  5
1068
100
AcDbEntity
  8
PARTS
 62
     7
100
AcDbLine
 10
7.94308
 20
3.407447
 30
0.0
 11
7.94308
 21
3.407447
 31
0.0
  0
CIRCLE
  5
1072
100
AcDbEntity
  8
PARTS
100
AcDbCircle
 10
7.79461
 20
10.924
 30
0.0
 40
0.125
  0
CIRCLE
  5
1073
100
AcDbEntity
  8
PARTS
100
AcDbCircle
 10
7.79461
 20
4.349
 30
0.0
 40
0.125
  0
SPLINE
  5
10A7
100
AcDbEntity
  8
ARTWORK
100
AcDbSpline
210
0.0
220
0.0
230
-1.0
 70
    11
 71
     3
 72
    16
 73
    12
 74
     0
 42
0.0000001
 43
0.0000001
 40
0.0
 40
0.0
 40
0.0
 40
0.0
 40
0.3333333333333333
 40
0.3333333333333333
 40
0.3333333333333333
 40
0.3333333333333333
 40
0.6666666666666666
 40
0.6666666666666666
 40
0.6666666666666666
 40
0.6666666666666666
 40
1.0
 40
1.0
 40
1.0
 40
1.0
 10
7.933078294724563
 20
12.81635827458456
 30
0.0
 10
7.83975152307102
 20
12.81642914072629
 30
0.0
 10
7.839743649055272
 20
12.67629528245858
 30
0.0
 10
7.93307435771669
 20
12.67636221159244
 30
0.0
 10
7.93307435771669
 20
12.67636221159244
 30
0.0
 10
8.026393255354484
 20
12.67627559741921
 30
0.0
 10
8.026412940393855
 20
12.8164133926948
 30
0.0
 10
7.933090105748186
 20
12.81635433757669
 30
0.0
 10
7.933090105748186
 20
12.81635433757669
 30
0.0
 10
7.933090105748186
 20
12.81635433757669
 30
0.0
 10
7.933078294724563
 20
12.81635827458456
 30
0.0
 10
7.933078294724563
 20
12.81635827458456
 30
0.0
  0
SPLINE
  5
10A8
100
AcDbEntity
  8
ARTWORK
100
AcDbSpline
210
0.0
220
0.0
230
-1.0
 70
    11
 71
     3
 72
    16
 73
    12
 74
     0
 42
0.0000001
 43
0.0000001
 40
0.0
 40
0.0
 40
0.0
 40
0.0
 40
0.3333333333333333
 40
0.3333333333333333
 40
0.3333333333333333
 40
0.3333333333333333
 40
0.6666666666666666
 40
0.6666666666666666
 40
0.6666666666666666
 40
0.6666666666666666
 40
1.0
 40
1.0
 40
1.0
 40
1.0
 10
7.933078294724563
 20
12.81635827458456
 30
0.0
 10
7.83975152307102
 20
12.81642914072629
 30
0.0
 10
7.839743649055272
 20
12.67629528245858
 30
0.0
 10
7.93307435771669
 20
12.67636221159244
 30
0.0
 10
7.93307435771669
 20
12.67636221159244
 30
0.0
 10
8.026393255354484
 20
12.67627559741921
 30
0.0
 10
8.026412940393855
 20
12.8164133926948
 30
0.0
 10
7.933090105748186
 20
12.81635433757669
 30
0.0
 10
7.933090105748186
 20
12.81635433757669
 30
0.0
 10
7.933090105748186
 20
12.81635433757669
 30
0.0
 10
7.933078294724563
 20
12.81635827458456
 30
0.0
 10
7.933078294724563
 20
12.81635827458456
 30
0.0
  0
LWPOLYLINE
  5
10A9
100
AcDbEntity
  8
ARTWORK
 62
     7
100
AcDbPolyline
 90
        5
 70
     1
 43
0.0
 39
5.0
 10
7.65761
 20
12.973362
 10
8.32061
 20
12.973362
 10
8.32061
 20
13.433362
 10
7.65761
 20
13.433362
 10
7.65761
 20
12.973362
  0
TEXT
  5
10AA
100
AcDbEntity
  8
ARTWORK
100
AcDbText
 10
7.760121
 20
12.573995
 30
0.0
 40
0.069999
  1
ACTIVE
 41
0.9
 51
-0.000002
  7
DENMARK
100
AcDbText
  0
LWPOLYLINE
  5
10AB
100
AcDbEntity
  8
ARTWORK
 62
     7
100
AcDbPolyline
 90
        5
 70
     1
 43
0.0
 39
5.0
 10
7.65761
 20
3.765846
 10
8.32061
 20
3.765846
 10
8.32061
 20
4.160846
 10
7.65761
 20
4.160846
 10
7.65761
 20
3.765846
  0
SPLINE
  5
10AC
100
AcDbEntity
  8
ARTWORK
100
AcDbSpline
210
0.0
220
0.0
230
1.0
 70
    11
 71
     3
 72
    64
 73
    60
 74
     0
 42
0.0000001
 43
0.0000001
 40
0.0
 40
0.0
 40
0.0
 40
0.0
 40
0.0666666666666667
 40
0.0666666666666667
 40
0.0666666666666667
 40
0.0666666666666667
 40
0.1333333333333333
 40
0.1333333333333333
 40
0.1333333333333333
 40
0.1333333333333333
 40
0.2
 40
0.2
 40
0.2
 40
0.2
 40
0.2666666666666666
 40
0.2666666666666666
 40
0.2666666666666666
 40
0.2666666666666666
 40
0.3333333333333333
 40
0.3333333333333333
 40
0.3333333333333333
 40
0.3333333333333333
 40
0.4
 40
0.4
 40
0.4
 40
0.4
 40
0.4666666666666666
 40
0.4666666666666666
 40
0.4666666666666666
 40
0.4666666666666666
 40
0.5333333333333333
 40
0.5333333333333333
 40
0.5333333333333333
 40
0.5333333333333333
 40
0.6
 40
0.6
 40
0.6
 40
0.6
 40
0.6666666666666666
 40
0.6666666666666666
 40
0.6666666666666666
 40
0.6666666666666666
 40
0.7333333333333333
 40
0.7333333333333333
 40
0.7333333333333333
 40
0.7333333333333333
 40
0.8
 40
0.8
 40
0.8
 40
0.8
 40
0.8666666666666666
 40
0.8666666666666666
 40
0.8666666666666666
 40
0.8666666666666666
 40
0.9333333333333332
 40
0.9333333333333332
 40
0.9333333333333332
 40
0.9333333333333332
 40
1.0
 40
1.0
 40
1.0
 40
1.0
 10
7.886141286850548
 20
3.945476384820786
 30
0.0
 10
7.886141286850548
 20
3.945476384820786
 30
0.0
 10
7.98307435771669
 20
3.945476384820786
 30
0.0
 10
7.98307435771669
 20
3.945476384820786
 30
0.0
 10
7.98307435771669
 20
3.945476384820786
 30
0.0
 10
7.98307435771669
 20
3.945476384820786
 30
0.0
 10
7.98307435771669
 20
3.993940951749919
 30
0.0
 10
7.98307435771669
 20
3.993940951749919
 30
0.0
 10
7.98307435771669
 20
3.993940951749919
 30
0.0
 10
7.98307435771669
 20
3.993940951749919
 30
0.0
 10
7.90871215299228
 20
3.993940951749919
 30
0.0
 10
7.90871215299228
 20
3.993940951749919
 30
0.0
 10
7.90871215299228
 20
3.993940951749919
 30
0.0
 10
7.90871215299228
 20
3.993940951749919
 30
0.0
 10
7.90871215299228
 20
4.064106306080628
 30
0.0
 10
7.90871215299228
 20
4.064106306080628
 30
0.0
 10
7.90871215299228
 20
4.064106306080628
 30
0.0
 10
7.90871215299228
 20
4.064106306080628
 30
0.0
 10
8.00127120811039
 20
4.064106306080628
 30
0.0
 10
8.00127120811039
 20
4.064106306080628
 30
0.0
 10
8.00127120811039
 20
4.064106306080628
 30
0.0
 10
8.00127120811039
 20
4.064106306080628
 30
0.0
 10
8.00127120811039
 20
3.945299219466455
 30
0.0
 10
8.00127120811039
 20
3.945299219466455
 30
0.0
 10
8.00127120811039
 20
3.945299219466455
 30
0.0
 10
8.00127120811039
 20
3.945299219466455
 30
0.0
 10
8.052188530945036
 20
3.945299219466455
 30
0.0
 10
8.052188530945036
 20
3.945299219466455
 30
0.0
 10
8.052188530945036
 20
3.945299219466455
 30
0.0
 10
8.052188530945036
 20
3.945299219466455
 30
0.0
 10
8.052188530945036
 20
4.064279534427084
 30
0.0
 10
8.052188530945036
 20
4.064279534427084
 30
0.0
 10
8.052188530945036
 20
4.064279534427084
 30
0.0
 10
8.052188530945036
 20
4.064279534427084
 30
0.0
 10
8.120601916771807
 20
4.064279534427084
 30
0.0
 10
8.120601916771807
 20
4.064279534427084
 30
0.0
 10
8.120601916771807
 20
4.064279534427084
 30
0.0
 10
8.120601916771807
 20
4.064279534427084
 30
0.0
 10
8.120601916771807
 20
4.116248038364092
 30
0.0
 10
8.120601916771807
 20
4.116248038364092
 30
0.0
 10
8.120601916771807
 20
4.116248038364092
 30
0.0
 10
8.120601916771807
 20
4.116248038364092
 30
0.0
 10
7.883692467952911
 20
4.116248038364092
 30
0.0
 10
7.883692467952911
 20
4.116248038364092
 30
0.0
 10
7.883692467952911
 20
4.116248038364092
 30
0.0
 10
7.870570420708816
 20
4.116248038364092
 30
0.0
 10
7.857621601811178
 20
4.111874022616061
 30
0.0
 10
7.857621601811178
 20
4.089125991119998
 30
0.0
 10
7.857621601811178
 20
4.089125991119998
 30
0.0
 10
7.857621601811178
 20
4.089125991119998
 30
0.0
 10
7.857621601811178
 20
3.972421266710549
 30
0.0
 10
7.857621601811178
 20
3.972421266710549
 30
0.0
 10
7.857621601811178
 20
3.972421266710549
 30
0.0
 10
7.857621601811178
 20
3.941102369072754
 30
0.0
 10
7.885968058504092
 20
3.945476384820786
 30
0.0
 10
7.885968058504092
 20
3.945476384820786
 30
0.0
 10
7.885968058504092
 20
3.945476384820786
 30
0.0
 10
7.885968058504092
 20
3.945476384820786
 30
0.0
 10
7.886141286850548
 20
3.945476384820786
 30
0.0
 10
7.886141286850548
 20
3.945476384820786
 30
0.0
  0
SPLINE
  5
10AD
100
AcDbEntity
  8
ARTWORK
100
AcDbSpline
210
0.0
220
0.0
230
1.0
 70
     8
 71
     3
 72
    60
 73
    56
 74
     0
 42
0.0000001
 43
0.0000001
 40
0.0
 40
0.0
 40
0.0
 40
0.0
 40
0.0714285714285714
 40
0.0714285714285714
 40
0.0714285714285714
 40
0.0714285714285714
 40
0.1428571428571428
 40
0.1428571428571428
 40
0.1428571428571428
 40
0.1428571428571428
 40
0.2142857142857143
 40
0.2142857142857143
 40
0.2142857142857143
 40
0.2142857142857143
 40
0.2857142857142857
 40
0.2857142857142857
 40
0.2857142857142857
 40
0.2857142857142857
 40
0.3571428571428571
 40
0.3571428571428571
 40
0.3571428571428571
 40
0.3571428571428571
 40
0.4285714285714285
 40
0.4285714285714285
 40
0.4285714285714285
 40
0.4285714285714285
 40
0.5
 40
0.5
 40
0.5
 40
0.5
 40
0.5714285714285713
 40
0.5714285714285713
 40
0.5714285714285713
 40
0.5714285714285713
 40
0.6428571428571427
 40
0.6428571428571427
 40
0.6428571428571427
 40
0.6428571428571427
 40
0.7142857142857141
 40
0.7142857142857141
 40
0.7142857142857141
 40
0.7142857142857141
 40
0.7857142857142855
 40
0.7857142857142855
 40
0.7857142857142855
 40
0.7857142857142855
 40
0.8571428571428569
 40
0.8571428571428569
 40
0.8571428571428569
 40
0.8571428571428569
 40
0.9285714285714282
 40
0.9285714285714282
 40
0.9285714285714282
 40
0.9285714285714282
 40
1.0
 40
1.0
 40
1.0
 40
1.0
 10
7.886141286850548
 20
3.945476384820786
 30
0.0
 10
7.886141286850548
 20
3.945476384820786
 30
0.0
 10
7.98307435771669
 20
3.945476384820786
 30
0.0
 10
7.98307435771669
 20
3.945476384820786
 30
0.0
 10
7.98307435771669
 20
3.945476384820786
 30
0.0
 10
7.98307435771669
 20
3.945476384820786
 30
0.0
 10
7.98307435771669
 20
3.993940951749919
 30
0.0
 10
7.98307435771669
 20
3.993940951749919
 30
0.0
 10
7.98307435771669
 20
3.993940951749919
 30
0.0
 10
7.98307435771669
 20
3.993940951749919
 30
0.0
 10
7.90871215299228
 20
3.993940951749919
 30
0.0
 10
7.90871215299228
 20
3.993940951749919
 30
0.0
 10
7.90871215299228
 20
3.993940951749919
 30
0.0
 10
7.90871215299228
 20
3.993940951749919
 30
0.0
 10
7.90871215299228
 20
4.064106306080628
 30
0.0
 10
7.90871215299228
 20
4.064106306080628
 30
0.0
 10
7.90871215299228
 20
4.064106306080628
 30
0.0
 10
7.90871215299228
 20
4.064106306080628
 30
0.0
 10
8.00127120811039
 20
4.064106306080628
 30
0.0
 10
8.00127120811039
 20
4.064106306080628
 30
0.0
 10
8.00127120811039
 20
4.064106306080628
 30
0.0
 10
8.00127120811039
 20
4.064106306080628
 30
0.0
 10
8.00127120811039
 20
3.945299219466455
 30
0.0
 10
8.00127120811039
 20
3.945299219466455
 30
0.0
 10
8.00127120811039
 20
3.945299219466455
 30
0.0
 10
8.00127120811039
 20
3.945299219466455
 30
0.0
 10
8.052188530945036
 20
3.945299219466455
 30
0.0
 10
8.052188530945036
 20
3.945299219466455
 30
0.0
 10
8.052188530945036
 20
3.945299219466455
 30
0.0
 10
8.052188530945036
 20
3.945299219466455
 30
0.0
 10
8.052188530945036
 20
4.064279534427084
 30
0.0
 10
8.052188530945036
 20
4.064279534427084
 30
0.0
 10
8.052188530945036
 20
4.064279534427084
 30
0.0
 10
8.052188530945036
 20
4.064279534427084
 30
0.0
 10
8.120601916771807
 20
4.064279534427084
 30
0.0
 10
8.120601916771807
 20
4.064279534427084
 30
0.0
 10
8.120601916771807
 20
4.064279534427084
 30
0.0
 10
8.120601916771807
 20
4.064279534427084
 30
0.0
 10
8.120601916771807
 20
4.116248038364092
 30
0.0
 10
8.120601916771807
 20
4.116248038364092
 30
0.0
 10
8.120601916771807
 20
4.116248038364092
 30
0.0
 10
8.120601916771807
 20
4.116248038364092
 30
0.0
 10
7.883692467952911
 20
4.116248038364092
 30
0.0
 10
7.883692467952911
 20
4.116248038364092
 30
0.0
 10
7.883692467952911
 20
4.116248038364092
 30
0.0
 10
7.870570420708816
 20
4.116248038364092
 30
0.0
 10
7.857621601811178
 20
4.111874022616061
 30
0.0
 10
7.857621601811178
 20
4.089125991119998
 30
0.0
 10
7.857621601811178
 20
4.089125991119998
 30
0.0
 10
7.857621601811178
 20
4.089125991119998
 30
0.0
 10
7.857621601811178
 20
3.972421266710549
 30
0.0
 10
7.857621601811178
 20
3.972421266710549
 30
0.0
 10
7.857621601811178
 20
3.972421266710549
 30
0.0
 10
7.857621601811178
 20
3.941102369072754
 30
0.0
 10
7.885968058504092
 20
3.945476384820786
 30
0.0
 10
7.885968058504092
 20
3.945476384820786
 30
0.0
  0
SPLINE
  5
10AE
100
AcDbEntity
  8
ARTWORK
100
AcDbSpline
210
0.0
220
0.0
230
-1.0
 70
    11
 71
     3
 72
    20
 73
    16
 74
     0
 42
0.0000001
 43
0.0000001
 40
0.0
 40
0.0
 40
0.0
 40
0.0
 40
0.25
 40
0.25
 40
0.25
 40
0.25
 40
0.5
 40
0.5
 40
0.5
 40
0.5
 40
0.75
 40
0.75
 40
0.75
 40
0.75
 40
1.0
 40
1.0
 40
1.0
 40
1.0
 10
8.120471995511966
 20
4.047102369072754
 30
0.0
 10
8.120471995511966
 20
4.047102369072754
 30
0.0
 10
8.120471995511966
 20
3.945169298206612
 30
0.0
 10
8.120471995511966
 20
3.945169298206612
 30
0.0
 10
8.120471995511966
 20
3.945169298206612
 30
0.0
 10
8.120471995511966
 20
3.945169298206612
 30
0.0
 10
8.070735775039524
 20
3.945169298206612
 30
0.0
 10
8.070735775039524
 20
3.945169298206612
 30
0.0
 10
8.070735775039524
 20
3.945169298206612
 30
0.0
 10
8.070735775039524
 20
3.945169298206612
 30
0.0
 10
8.070735775039524
 20
4.047102369072754
 30
0.0
 10
8.070735775039524
 20
4.047102369072754
 30
0.0
 10
8.070735775039524
 20
4.047102369072754
 30
0.0
 10
8.070735775039524
 20
4.047102369072754
 30
0.0
 10
8.120471995511966
 20
4.047102369072754
 30
0.0
 10
8.120471995511966
 20
4.047102369072754
 30
0.0
  0
TEXT
  5
10AF
100
AcDbEntity
  8
ARTWORK
100
AcDbText
 10
7.75702
 20
3.810555
 30
0.0
 40
0.09
  1
2559-RTD
 41
0.629661
 51
5.069935
  7
DENMARK
100
AcDbText
  0
TEXT
  5
10B0
100
AcDbEntity
  8
ARTWORK
100
AcDbText
 10
7.82193
 20
13.234047
 30
0.0
 40
0.089997
  1
RTD IN
 41
0.729
 51
3.649337
  7
DENMARK
100
AcDbText
  0
TEXT
  5
10B1
100
AcDbEntity
  8
ARTWORK
100
AcDbText
 10
7.871565
 20
13.086051
 30
0.0
 40
0.089997
  1
8 CH
 41
0.729
 51
3.649337
  7
DENMARK
100
AcDbText
  0
TEXT
  5
10B2
100
AcDbEntity
  8
ARTWORK
100
AcDbText
 10
7.827887
 20
13.008567
 30
0.0
 40
0.089997
  1
 
 41
0.729
 51
3.649337
  7
DENMARK
100
AcDbText
  0
ENDSEC
  0
SECTION
  2
OBJECTS
  0
DICTIONARY
  5
C
100
AcDbDictionary
  3
ACAD_GROUP
350
D
  3
ACAD_MLINESTYLE
350
E
  0
DICTIONARY
  5
D
102
{ACAD_REACTORS
330
C
102
}
100
AcDbDictionary
  0
DICTIONARY
  5
E
102
{ACAD_REACTORS
330
C
102
}
100
AcDbDictionary
  3
STANDARD
350
1B
  0
MLINESTYLE
  5
1B
102
{ACAD_REACTORS
330
E
102
}
100
AcDbMlineStyle
  2
STANDARD
 70
     0
  3

 62
     0
 51
90.0
 52
90.0
 71
     2
 49
0.5
 62
   256
  6
BYLAYER
 49
-0.5
 62
   256
  6
BYLAYER
  0
ENDSEC
  0
EOF
