  0
SECTION
  2
HEADER
  9
$ACADVER
  1
AC1009
  9
$INSBASE
 10
0.0
 20
0.0
 30
0.0
  9
$EXTMIN
 10
-56.714311909614167
 20
6.3641077624039113
 30
-0.0000000000000058
  9
$EXTMAX
 10
-39.712151680975261
 20
28.367740644045199
 30
0.0000000000000104
  9
$LIMMIN
 10
0.0
 20
0.0
  9
$LIMMAX
 10
12.0
 20
9.0
  9
$ORTHOMODE
 70
     0
  9
$REGENMODE
 70
     1
  9
$FILLMODE
 70
     1
  9
$QTEXTMODE
 70
     0
  9
$MIRRTEXT
 70
     0
  9
$DRAGMODE
 70
     2
  9
$LTSCALE
 40
0.2
  9
$OSMODE
 70
    32
  9
$ATTMODE
 70
     1
  9
$TEXTSIZE
 40
0.125
  9
$TRACEWID
 40
0.05
  9
$TEXTSTYLE
  7
1
  9
$CLAYER
  8
0
  9
$CELTYPE
  6
BYLAYER
  9
$CECOLOR
 62
   256
  9
$DIMSCALE
 40
1.0
  9
$DIMASZ
 40
0.18
  9
$DIMEXO
 40
0.0625
  9
$DIMDLI
 40
0.38
  9
$DIMRND
 40
0.0
  9
$DIMDLE
 40
0.0
  9
$DIMEXE
 40
0.18
  9
$DIMTP
 40
0.0
  9
$DIMTM
 40
0.0
  9
$DIMTXT
 40
0.18
  9
$DIMCEN
 40
0.09
  9
$DIMTSZ
 40
0.0
  9
$DIMTOL
 70
     0
  9
$DIMLIM
 70
     0
  9
$DIMTIH
 70
     1
  9
$DIMTOH
 70
     1
  9
$DIMSE1
 70
     0
  9
$DIMSE2
 70
     0
  9
$DIMTAD
 70
     0
  9
$DIMZIN
 70
     0
  9
$DIMBLK
  1
DA
  9
$DIMASO
 70
     1
  9
$DIMSHO
 70
     1
  9
$DIMPOST
  1

  9
$DIMAPOST
  1

  9
$DIMALT
 70
     0
  9
$DIMALTD
 70
     2
  9
$DIMALTF
 40
25.399999999999999
  9
$DIMLFAC
 40
1.0
  9
$DIMTOFL
 70
     0
  9
$DIMTVP
 40
0.0
  9
$DIMTIX
 70
     0
  9
$DIMSOXD
 70
     0
  9
$DIMSAH
 70
     0
  9
$DIMBLK1
  1

  9
$DIMBLK2
  1

  9
$DIMSTYLE
  2
STANDARD
  9
$DIMCLRD
 70
     0
  9
$DIMCLRE
 70
     0
  9
$DIMCLRT
 70
     0
  9
$DIMTFAC
 40
1.0
  9
$DIMGAP
 40
0.09
  9
$LUNITS
 70
     2
  9
$LUPREC
 70
     3
  9
$SKETCHINC
 40
0.1
  9
$FILLETRAD
 40
0.0
  9
$AUNITS
 70
     0
  9
$AUPREC
 70
     4
  9
$MENU
  1
acad
  9
$ELEVATION
 40
0.0
  9
$PELEVATION
 40
0.0
  9
$THICKNESS
 40
0.0
  9
$LIMCHECK
 70
     0
  9
$BLIPMODE
 70
     1
  9
$CHAMFERA
 40
0.04
  9
$CHAMFERB
 40
0.04
  9
$SKPOLY
 70
     0
  9
$TDCREATE
 40
2451296.3786567128
  9
$TDUPDATE
 40
2451821.473731712
  9
$TDINDWG
 40
0.535596412
  9
$TDUSRTIMER
 40
0.535596412
  9
$USRTIMER
 70
     1
  9
$ANGBASE
 50
0.0
  9
$ANGDIR
 70
     0
  9
$PDMODE
 70
     0
  9
$PDSIZE
 40
0.0
  9
$PLINEWID
 40
0.0
  9
$COORDS
 70
     2
  9
$SPLFRAME
 70
     0
  9
$SPLINETYPE
 70
     6
  9
$SPLINESEGS
 70
     8
  9
$ATTDIA
 70
     0
  9
$ATTREQ
 70
     1
  9
$HANDLING
 70
  4097
  9
$HANDSEED
  5
44B5
  9
$SURFTAB1
 70
     6
  9
$SURFTAB2
 70
     6
  9
$SURFTYPE
 70
     6
  9
$SURFU
 70
     6
  9
$SURFV
 70
     6
  9
$UCSNAME
  2

  9
$UCSORG
 10
-56.713508457290139
 20
4.4215248508740617
 30
0.0
  9
$UCSXDIR
 10
1.0
 20
0.0
 30
0.0
  9
$UCSYDIR
 10
0.0
 20
1.0
 30
0.0
  9
$PUCSNAME
  2

  9
$PUCSORG
 10
0.0
 20
0.0
 30
0.0
  9
$PUCSXDIR
 10
1.0
 20
0.0
 30
0.0
  9
$PUCSYDIR
 10
0.0
 20
1.0
 30
0.0
  9
$USERI1
 70
     0
  9
$USERI2
 70
     0
  9
$USERI3
 70
     0
  9
$USERI4
 70
     0
  9
$USERI5
 70
     0
  9
$USERR1
 40
0.0
  9
$USERR2
 40
0.0
  9
$USERR3
 40
0.0
  9
$USERR4
 40
0.0
  9
$USERR5
 40
0.0
  9
$WORLDVIEW
 70
     1
  9
$SHADEDGE
 70
     3
  9
$SHADEDIF
 70
    70
  9
$TILEMODE
 70
     1
  9
$MAXACTVP
 70
    16
  9
$PLIMCHECK
 70
     0
  9
$PEXTMIN
 10
1.0000000000000000E+020
 20
1.0000000000000000E+020
 30
1.0000000000000000E+020
  9
$PEXTMAX
 10
-1.0000000000000000E+020
 20
-1.0000000000000000E+020
 30
-1.0000000000000000E+020
  9
$PLIMMIN
 10
0.0
 20
0.0
  9
$PLIMMAX
 10
12.0
 20
9.0
  9
$UNITMODE
 70
     0
  9
$VISRETAIN
 70
     0
  9
$PLINEGEN
 70
     0
  9
$PSLTSCALE
 70
     1
  0
ENDSEC
  0
SECTION
  2
TABLES
  0
TABLE
  2
VPORT
 70
     2
  0
VPORT
  2
*ACTIVE
 70
     0
 10
0.0
 20
0.0
 11
1.0
 21
1.0
 12
-48.21323179529471
 22
17.365924203224552
 13
0.0
 23
0.0
 14
0.1
 24
0.1
 15
0.0
 25
0.0
 16
0.0
 26
0.0
 36
1.0
 17
0.0
 27
0.0
 37
0.0
 40
22.24410974373572
 41
1.270072992700729
 42
50.0
 43
0.0
 44
0.0
 50
0.0
 51
0.0
 71
     0
 72
 10000
 73
     1
 74
     0
 75
     0
 76
     0
 77
     0
 78
     0
  0
ENDTAB
  0
TABLE
  2
LTYPE
 70
     3
  0
LTYPE
  2
CONTINUOUS
 70
     0
  3
Solid line
 72
    65
 73
     0
 40
0.0
  0
LTYPE
  2
CENTER
 70
     0
  3
____ _ ____ _ ____ _ ____ _ ____ _ ____ _ ____ 
 72
    65
 73
     4
 40
2.0
 49
1.25
 49
-0.25
 49
0.25
 49
-0.25
  0
LTYPE
  2
HIDDEN
 70
     0
  3
__ __ __ __ __ __ __ __ __ __ __ __ __ __ __ __
 72
    65
 73
     2
 40
0.375
 49
0.25
 49
-0.125
  0
ENDTAB
  0
TABLE
  2
LAYER
 70
     1
  0
LAYER
  2
0
 70
     0
 62
     7
  6
CONTINUOUS
  0
ENDTAB
  0
TABLE
  2
STYLE
 70
     5
  0
STYLE
  2
STANDARD
 70
     0
 40
0.1
 41
1.0
 50
0.0
 71
     0
 42
0.2
  3
txt.shx
  4

  0
STYLE
  2
1
 70
     0
 40
0.1
 41
1.0
 50
0.0
 71
     0
 42
0.125
  3
txt
  4

  0
STYLE
  2
2
 70
     0
 40
0.1
 41
1.0
 50
0.0
 71
     0
 42
0.125
  3
txt
  4

  0
STYLE
  2
3
 70
     0
 40
0.1
 41
1.0
 50
0.0
 71
     0
 42
0.125
  3
txt
  4

  0
STYLE
  2
4
 70
     0
 40
0.1
 41
1.0
 50
0.0
 71
     0
 42
0.125
  3
txt
  4

  0
ENDTAB
  0
TABLE
  2
VIEW
 70
     0
  0
ENDTAB
  0
TABLE
  2
UCS
 70
     0
  0
ENDTAB
  0
TABLE
  2
APPID
 70
     2
  0
APPID
  2
ACAD
 70
     0
  0
APPID
  2
AUTOCAD_POSTSCRIPT_FIGURE
 70
     0
  0
ENDTAB
  0
TABLE
  2
DIMSTYLE
 70
     1
  0
DIMSTYLE
  2
STANDARD
 70
     0
  3

  4

  5

  6

  7

 40
1.0
 41
0.18
 42
0.0625
 43
0.38
 44
0.18
 45
0.0
 46
0.0
 47
0.0
 48
0.0
140
0.18
141
0.09
142
0.0
143
25.399999999999999
144
1.0
145
0.0
146
1.0
147
0.09
 71
     0
 72
     0
 73
     1
 74
     1
 75
     0
 76
     0
 77
     0
 78
     0
170
     0
171
     2
172
     0
173
     0
174
     0
175
     0
176
     0
177
     0
178
     0
  0
ENDTAB
  0
ENDSEC
  0
SECTION
  2
BLOCKS
  0
BLOCK
  8
0
  2
$MODEL_SPACE
 70
     0
 10
0.0
 20
0.0
 30
0.0
  3
$MODEL_SPACE
  1

  0
ENDBLK
  5
30
  8
0
  0
BLOCK
 67
     1
  8
0
  2
$PAPER_SPACE
 70
     0
 10
0.0
 20
0.0
 30
0.0
  3
$PAPER_SPACE
  1

  0
ENDBLK
  5
2E
 67
     1
  8
0
  0
BLOCK
  8
0
  2
DA
 70
     0
 10
0.0
 20
0.0
 30
0.0
  3
DA
  1

  0
SOLID
  5
32
  8
0
 10
0.0
 20
0.0
 30
0.0
 11
-1.0
 21
0.25
 31
0.0
 12
-1.0
 22
-0.25
 32
0.0
 13
-0.75
 23
0.0
 33
0.0
  0
LINE
  5
33
  8
0
 10
-0.5
 20
0.0
 30
0.0
 11
-1.0
 21
0.0
 31
0.0
  0
ENDBLK
  5
34
  8
0
  0
BLOCK
  8
0
  2
*X2
 70
     1
 10
0.0
 20
0.0
 30
0.0
  3
*X2
  1

  0
LINE
  5
42D0
  8
0
 62
     0
 10
-41.965193551857297
 20
14.354521044998849
 30
0.0
 11
-42.049130007371858
 21
14.43845750051341
 31
0.0
  0
LINE
  5
42D1
  8
0
 62
     0
 10
-41.965193551857297
 20
14.089356002053901
 30
0.0
 11
-42.21519355185729
 21
14.339356002053901
 31
0.0
  0
LINE
  5
42D2
  8
0
 62
     0
 10
-41.965193551857297
 20
13.82419095910894
 30
0.0
 11
-42.21519355185729
 21
14.07419095910894
 31
0.0
  0
LINE
  5
42D3
  8
0
 62
     0
 10
-41.965193551857297
 20
13.55902591616398
 30
0.0
 11
-42.215193551857297
 21
13.80902591616398
 31
0.0
  0
LINE
  5
42D4
  8
0
 62
     0
 10
-41.965193551857297
 20
13.29386087321903
 30
0.0
 11
-42.215193551857297
 21
13.54386087321903
 31
0.0
  0
LINE
  5
42D5
  8
0
 62
     0
 10
-41.965193551857297
 20
13.02869583027408
 30
0.0
 11
-42.215193551857297
 21
13.27869583027408
 31
0.0
  0
LINE
  5
42D6
  8
0
 62
     0
 10
-41.965193551857297
 20
12.76353078732912
 30
0.0
 11
-42.21519355185729
 21
13.01353078732912
 31
0.0
  0
LINE
  5
42D7
  8
0
 62
     0
 10
-41.965193551857297
 20
12.49836574438417
 30
0.0
 11
-42.215193551857297
 21
12.748365744384159
 31
0.0
  0
LINE
  5
42D8
  8
0
 62
     0
 10
-41.965193551857297
 20
12.233200701439211
 30
0.0
 11
-42.21519355185729
 21
12.483200701439211
 31
0.0
  0
LINE
  5
42D9
  8
0
 62
     0
 10
-41.965193551857297
 20
11.96803565849425
 30
0.0
 11
-42.21519355185729
 21
12.21803565849425
 31
0.0
  0
LINE
  5
42DA
  8
0
 62
     0
 10
-41.965193551857297
 20
11.702870615549299
 30
0.0
 11
-42.215193551857297
 21
11.952870615549299
 31
0.0
  0
LINE
  5
42DB
  8
0
 62
     0
 10
-41.965193551857297
 20
11.43770557260434
 30
0.0
 11
-42.215193551857297
 21
11.68770557260434
 31
0.0
  0
LINE
  5
42DC
  8
0
 62
     0
 10
-41.965193551857297
 20
11.17254052965939
 30
0.0
 11
-42.215193551857297
 21
11.42254052965939
 31
0.0
  0
LINE
  5
42DD
  8
0
 62
     0
 10
-41.965193551857297
 20
10.907375486714431
 30
0.0
 11
-42.21519355185729
 21
11.157375486714431
 31
0.0
  0
LINE
  5
42DE
  8
0
 62
     0
 10
-41.965193551857297
 20
10.64221044376948
 30
0.0
 11
-42.215193551857297
 21
10.89221044376947
 31
0.0
  0
LINE
  5
42DF
  8
0
 62
     0
 10
-41.965193551857297
 20
10.377045400824519
 30
0.0
 11
-42.21519355185729
 21
10.627045400824519
 31
0.0
  0
LINE
  5
42E0
  8
0
 62
     0
 10
-41.965193551857297
 20
10.111880357879571
 30
0.0
 11
-42.215193551857297
 21
10.36188035787956
 31
0.0
  0
LINE
  5
42E1
  8
0
 62
     0
 10
-41.965193551857297
 20
9.8467153149346167
 30
0.0
 11
-42.215193551857297
 21
10.09671531493461
 31
0.0
  0
LINE
  5
42E2
  8
0
 62
     0
 10
-41.965193551857297
 20
9.581550271989661
 30
0.0
 11
-42.215193551857297
 21
9.8315502719896593
 31
0.0
  0
LINE
  5
42E3
  8
0
 62
     0
 10
-41.965193551857297
 20
9.3163852290447036
 30
0.0
 11
-42.215193551857297
 21
9.5663852290447018
 31
0.0
  0
LINE
  5
42E4
  8
0
 62
     0
 10
-41.965193551857297
 20
9.0512201860997514
 30
0.0
 11
-42.21519355185729
 21
9.3012201860997479
 31
0.0
  0
LINE
  5
42E5
  8
0
 62
     0
 10
-41.965193551857297
 20
8.7860551431547922
 30
0.0
 11
-42.215193551857297
 21
9.0360551431547922
 31
0.0
  0
LINE
  5
42E6
  8
0
 62
     0
 10
-41.968851169631719
 20
8.5245477179842606
 30
0.0
 11
-42.21519355185729
 21
8.7708901002098365
 31
0.0
  0
LINE
  5
42E7
  8
0
 62
     0
 10
-42.133655452866023
 20
8.4241869582735962
 30
0.0
 11
-42.215193551857297
 21
8.5057250572648826
 31
0.0
  0
LINE
  5
42E8
  8
0
 62
     0
 10
-42.215193551857311
 20
8.5113557098720012
 30
0.0
 11
-41.965193551857297
 21
8.7613557098720012
 31
0.0
  0
LINE
  5
42E9
  8
0
 62
     0
 10
-42.215193551857311
 20
8.7765207528169586
 30
0.0
 11
-41.965193551857297
 21
9.0265207528169586
 31
0.0
  0
LINE
  5
42EA
  8
0
 62
     0
 10
-42.215193551857297
 20
9.0416857957619143
 30
0.0
 11
-41.965193551857297
 21
9.2916857957619143
 31
0.0
  0
LINE
  5
42EB
  8
0
 62
     0
 10
-42.215193551857297
 20
9.30685083870687
 30
0.0
 11
-41.965193551857297
 21
9.5568508387068682
 31
0.0
  0
LINE
  5
42EC
  8
0
 62
     0
 10
-42.215193551857297
 20
9.5720158816518257
 30
0.0
 11
-41.965193551857297
 21
9.8220158816518257
 31
0.0
  0
LINE
  5
42ED
  8
0
 62
     0
 10
-42.215193551857311
 20
9.8371809245967796
 30
0.0
 11
-41.965193551857297
 21
10.087180924596771
 31
0.0
  0
LINE
  5
42EE
  8
0
 62
     0
 10
-42.215193551857311
 20
10.10234596754173
 30
0.0
 11
-41.965193551857297
 21
10.35234596754173
 31
0.0
  0
LINE
  5
42EF
  8
0
 62
     0
 10
-42.215193551857311
 20
10.367511010486689
 30
0.0
 11
-41.965193551857297
 21
10.617511010486689
 31
0.0
  0
LINE
  5
42F0
  8
0
 62
     0
 10
-42.215193551857311
 20
10.63267605343164
 30
0.0
 11
-41.965193551857297
 21
10.88267605343164
 31
0.0
  0
LINE
  5
42F1
  8
0
 62
     0
 10
-42.215193551857297
 20
10.897841096376601
 30
0.0
 11
-41.965193551857297
 21
11.147841096376601
 31
0.0
  0
LINE
  5
42F2
  8
0
 62
     0
 10
-42.215193551857297
 20
11.163006139321549
 30
0.0
 11
-41.965193551857297
 21
11.413006139321549
 31
0.0
  0
LINE
  5
42F3
  8
0
 62
     0
 10
-42.215193551857311
 20
11.42817118226651
 30
0.0
 11
-41.965193551857297
 21
11.67817118226651
 31
0.0
  0
LINE
  5
42F4
  8
0
 62
     0
 10
-42.215193551857311
 20
11.693336225211461
 30
0.0
 11
-41.965193551857297
 21
11.943336225211461
 31
0.0
  0
LINE
  5
42F5
  8
0
 62
     0
 10
-42.215193551857311
 20
11.95850126815642
 30
0.0
 11
-41.965193551857297
 21
12.20850126815642
 31
0.0
  0
LINE
  5
42F6
  8
0
 62
     0
 10
-42.215193551857311
 20
12.22366631110137
 30
0.0
 11
-41.965193551857297
 21
12.47366631110137
 31
0.0
  0
LINE
  5
42F7
  8
0
 62
     0
 10
-42.215193551857311
 20
12.488831354046329
 30
0.0
 11
-41.965193551857297
 21
12.738831354046329
 31
0.0
  0
LINE
  5
42F8
  8
0
 62
     0
 10
-42.215193551857297
 20
12.75399639699128
 30
0.0
 11
-41.965193551857297
 21
13.00399639699128
 31
0.0
  0
LINE
  5
42F9
  8
0
 62
     0
 10
-42.215193551857311
 20
13.019161439936241
 30
0.0
 11
-41.965193551857297
 21
13.269161439936241
 31
0.0
  0
LINE
  5
42FA
  8
0
 62
     0
 10
-42.215193551857311
 20
13.284326482881189
 30
0.0
 11
-41.965193551857297
 21
13.534326482881189
 31
0.0
  0
LINE
  5
42FB
  8
0
 62
     0
 10
-42.215193551857311
 20
13.54949152582615
 30
0.0
 11
-41.965193551857297
 21
13.79949152582615
 31
0.0
  0
LINE
  5
42FC
  8
0
 62
     0
 10
-42.215193551857311
 20
13.814656568771101
 30
0.0
 11
-41.965193551857297
 21
14.064656568771101
 31
0.0
  0
LINE
  5
42FD
  8
0
 62
     0
 10
-42.215193551857311
 20
14.07982161171606
 30
0.0
 11
-41.965193551857297
 21
14.32982161171606
 31
0.0
  0
LINE
  5
42FE
  8
0
 62
     0
 10
-42.215193551857311
 20
14.344986654661019
 30
0.0
 11
-42.179431554398342
 21
14.380748652119991
 31
0.0
  0
ENDBLK
  5
4300
  8
0
  0
ENDSEC
  0
SECTION
  2
ENTITIES
  0
LINE
  5
3D72
  8
0
  6
BYBLOCK
 10
-54.024421358336667
 20
23.979733626444371
 30
0.0
 11
-54.690760826441668
 21
23.979733626444371
 31
0.0
  0
LINE
  5
3D73
  8
0
  6
BYBLOCK
 10
-53.309774879849101
 20
24.729733626444371
 30
0.0
 11
-55.132395746390493
 21
24.729733626444371
 31
0.0
  0
TEXT
  5
3D74
  8
0
  6
BYBLOCK
 10
-54.76520388370767
 20
21.15923073887064
 30
0.0
 40
0.15
  1
[127]
  7
1
 72
     4
 11
-54.525279586663693
 21
21.212222808084771
 31
0.0
  0
LINE
  5
3D75
  8
0
  6
BYBLOCK
 10
-54.024421358336667
 20
18.979750389939291
 30
0.0
 11
-55.132395746390493
 21
18.979750389939291
 31
0.0
  0
LINE
  5
3D76
  8
0
  6
BYBLOCK
 10
-54.024421358336667
 20
18.979750389939291
 30
0.0
 11
-54.85149980517302
 21
18.979750389939291
 31
0.0
  0
TEXT
  5
3D77
  8
0
 10
-56.45424404947034
 20
6.6923826493321243
 30
0.0
 40
0.15
  1
Dimensions are in inches [mm].
 51
10.0
  7
2
  0
TEXT
  5
3D78
  8
0
  6
BYBLOCK
 10
-55.20147843460655
 20
22.329917691797711
 30
0.0
 40
0.15
  1
5.75
  7
1
 72
     4
 11
-55.001135968853127
 21
22.401727352936859
 31
0.0
  0
LINE
  5
3D79
  8
0
 10
-54.525279586663693
 20
23.729733626444371
 30
0.0
 11
-54.525279586663693
 21
21.66127342638239
 31
0.0
  0
INSERT
  5
3D7A
  8
0
  2
DA
 10
-54.525279586663693
 20
18.979750389939291
 30
0.0
 41
0.25
 42
0.25
 43
0.25
 50
270.0
  0
INSERT
  5
3D7B
  8
0
  2
DA
 10
-55.001135968853127
 20
18.979750389939291
 30
0.0
 41
0.25
 42
0.25
 43
0.25
 50
270.0
  0
LINE
  5
3D7D
  8
0
 10
-55.001135968853127
 20
19.229750389939291
 30
0.0
 11
-55.001135968853127
 21
21.910351023030319
 31
0.0
  0
LINE
  5
3D7E
  8
0
 10
-54.525279586663693
 20
19.229750389939291
 30
0.0
 11
-54.525279586663693
 21
21.02078789421093
 31
0.0
  0
TEXT
  5
3D7F
  8
0
  6
BYBLOCK
 10
-54.719079154075381
 20
21.406418287932279
 30
0.0
 40
0.15
  1
5.00
  7
1
 72
     4
 11
-54.525279586663693
 21
21.479742008191831
 31
0.0
  0
TEXT
  5
3D80
  8
0
  6
BYBLOCK
 10
-55.241060265897097
 20
22.081216083615669
 30
0.0
 40
0.15
  1
[146]
  7
1
 72
     4
 11
-55.001135968853127
 21
22.134208152829789
 31
0.0
  0
LINE
  5
3D81
  8
0
 10
-55.001135968853127
 20
24.479733626444371
 30
0.0
 11
-55.001135968853127
 21
22.604210448826262
 31
0.0
  0
INSERT
  5
3D82
  8
0
  2
DA
 10
-54.525279586663693
 20
23.979733626444371
 30
0.0
 41
0.25
 42
0.25
 43
0.25
 50
90.0
  0
INSERT
  5
3D83
  8
0
  2
DA
 10
-55.001135968853127
 20
24.729733626444371
 30
0.0
 41
0.25
 42
0.25
 43
0.25
 50
90.0
  0
POLYLINE
  5
3D84
  8
0
 66
     1
 10
0.0
 20
0.0
 30
0.0
  0
VERTEX
  5
415C
  8
0
 10
-42.215193551857297
 20
8.6825714578901056
 30
0.0
  0
VERTEX
  5
415D
  8
0
 10
-42.215193551857297
 20
13.59707145789011
 30
0.0
  0
SEQEND
  5
415E
  8
0
  0
POLYLINE
  5
3D85
  8
0
 66
     1
 10
0.0
 20
0.0
 30
0.0
 70
     1
  0
VERTEX
  5
415F
  8
0
 10
-41.323673086845922
 20
8.7231075198916272
 30
0.0
  0
VERTEX
  5
4160
  8
0
 10
-41.965193551857297
 20
8.637571457890111
 30
0.0
  0
VERTEX
  5
4161
  8
0
 10
-41.965193551857297
 20
13.637571457890109
 30
0.0
  0
VERTEX
  5
4162
  8
0
 10
-41.323673086845922
 20
13.5520353958886
 30
0.0
 42
-0.3759019639771884
  0
VERTEX
  5
4163
  8
0
 10
-41.215193551857297
 20
13.42813190830327
 30
0.0
  0
VERTEX
  5
4164
  8
0
 10
-41.215193551857297
 20
8.8470110074769561
 30
0.0
 42
-0.3759019639771886
  0
SEQEND
  5
4165
  8
0
  0
POLYLINE
  5
3D86
  8
0
 66
     1
 10
0.0
 20
0.0
 30
0.0
 70
     1
  0
VERTEX
  5
4166
  8
0
 10
-42.260193551857299
 20
8.637571457890111
 30
0.0
  0
VERTEX
  5
4167
  8
0
 10
-42.260193551857299
 20
13.637571457890109
 30
0.0
  0
VERTEX
  5
4168
  8
0
 10
-43.100688475118787
 20
13.553521965563959
 30
0.0
 42
0.4058694351604573
  0
VERTEX
  5
4169
  8
0
 10
-43.114158025262718
 20
13.53753086270374
 30
0.0
  0
VERTEX
  5
416A
  8
0
 10
-42.773470386444558
 20
8.7536836230999597
 30
0.0
 42
0.393520787281382
  0
VERTEX
  5
416B
  8
0
 10
-42.648786761245653
 20
8.6375714578901022
 30
0.0
  0
SEQEND
  5
416C
  8
0
  0
POLYLINE
  5
3D87
  8
0
 66
     1
 10
0.0
 20
0.0
 30
0.0
 70
     1
  0
VERTEX
  5
416D
  8
0
 10
-53.587108371231551
 20
23.710858183621511
 30
0.0
 42
0.4142135623730951
  0
VERTEX
  5
416E
  8
0
 10
-53.747108371231541
 20
23.550858183621521
 30
0.0
  0
VERTEX
  5
416F
  8
0
 10
-53.747108371231541
 20
19.40752583276215
 30
0.0
 42
0.4142135623730951
  0
VERTEX
  5
4170
  8
0
 10
-53.587108371231551
 20
19.24752583276215
 30
0.0
  0
VERTEX
  5
4171
  8
0
 10
-46.29793333934478
 20
19.24752583276215
 30
0.0
 42
0.4142135623730951
  0
VERTEX
  5
4172
  8
0
 10
-46.137933339344791
 20
19.40752583276215
 30
0.0
  0
VERTEX
  5
4173
  8
0
 10
-46.137933339344791
 20
23.550858183621521
 30
0.0
 42
0.4142135623730951
  0
VERTEX
  5
4174
  8
0
 10
-46.29793333934478
 20
23.710858183621511
 30
0.0
  0
SEQEND
  5
4175
  8
0
  0
POLYLINE
  5
3D88
  8
0
 66
     1
 10
0.0
 20
0.0
 30
0.0
 70
     1
  0
VERTEX
  5
4176
  8
0
 10
-53.854658548360682
 20
19.379975655633011
 30
0.0
 42
0.4142135623730951
  0
VERTEX
  5
4177
  8
0
 10
-53.614658548360687
 20
19.139975655633009
 30
0.0
  0
VERTEX
  5
4178
  8
0
 10
-46.297270706497933
 20
19.139975655633009
 30
0.0
 42
0.4142135623730951
  0
VERTEX
  5
4179
  8
0
 10
-46.057270706497938
 20
19.379975655633011
 30
0.0
  0
VERTEX
  5
417A
  8
0
 10
-46.057270706497938
 20
23.578408360750661
 30
0.0
 42
0.4142135623730951
  0
VERTEX
  5
417B
  8
0
 10
-46.297270706497933
 20
23.818408360750659
 30
0.0
  0
VERTEX
  5
417C
  8
0
 10
-53.614658548360687
 20
23.818408360750659
 30
0.0
 42
0.414213562373095
  0
VERTEX
  5
417D
  8
0
 10
-53.854658548360682
 20
23.578408360750661
 30
0.0
  0
SEQEND
  5
417E
  8
0
  0
POLYLINE
  5
3D89
  8
0
 66
     1
 10
0.0
 20
0.0
 30
0.0
 70
     1
  0
VERTEX
  5
417F
  8
0
 10
-54.029421358336691
 20
19.10975038993929
 30
0.0
  0
VERTEX
  5
4180
  8
0
 10
-54.029421358336691
 20
23.849733626444369
 30
0.0
 42
-0.4142135623730951
  0
VERTEX
  5
4181
  8
0
 10
-53.899421358336667
 20
23.979733626444371
 30
0.0
  0
VERTEX
  5
4182
  8
0
 10
-46.039395440804228
 20
23.979733626444371
 30
0.0
 42
-0.4142135623730949
  0
VERTEX
  5
4183
  8
0
 10
-45.909395440804232
 20
23.849733626444369
 30
0.0
  0
VERTEX
  5
4184
  8
0
 10
-45.909395440804232
 20
19.10975038993929
 30
0.0
 42
-0.4142135623730953
  0
VERTEX
  5
4185
  8
0
 10
-46.039395440804221
 20
18.979750389939291
 30
0.0
  0
VERTEX
  5
4186
  8
0
 10
-53.899421358336667
 20
18.979750389939291
 30
0.0
 42
-0.4142135623730951
  0
SEQEND
  5
4187
  8
0
  0
POLYLINE
  5
3D8A
  8
0
 66
     1
 10
0.0
 20
0.0
 30
0.0
 70
     1
  0
VERTEX
  5
4188
  8
0
 10
-52.967369587045262
 20
22.393368513789529
 30
0.0
  0
VERTEX
  5
4189
  8
0
 10
-52.967369587045262
 20
23.11933220941124
 30
0.0
  0
VERTEX
  5
418A
  8
0
 10
-46.863897034966492
 20
23.11933220941124
 30
0.0
  0
VERTEX
  5
418B
  8
0
 10
-46.863897034966492
 20
22.393368513789529
 30
0.0
  0
SEQEND
  5
418C
  8
0
  0
POLYLINE
  5
3D8B
  8
0
 66
     1
 10
0.0
 20
0.0
 30
0.0
 70
     1
  0
VERTEX
  5
418D
  8
0
 10
-53.478232928408687
 20
23.361095196516381
 30
0.0
 42
-0.4142135623730951
  0
VERTEX
  5
418E
  8
0
 10
-53.424232928408692
 20
23.415095196516379
 30
0.0
  0
VERTEX
  5
418F
  8
0
 10
-46.514583870732217
 20
23.415095196516379
 30
0.0
 42
-0.4142135623730951
  0
VERTEX
  5
4190
  8
0
 10
-46.460583870732208
 20
23.361095196516381
 30
0.0
  0
VERTEX
  5
4191
  8
0
 10
-46.460583870732208
 20
21.936505172426109
 30
0.0
 42
-0.4142135623730951
  0
VERTEX
  5
4192
  8
0
 10
-46.514583870732217
 20
21.882505172426111
 30
0.0
  0
VERTEX
  5
4193
  8
0
 10
-53.424232928408692
 20
21.882505172426111
 30
0.0
 42
-0.4142135623730951
  0
VERTEX
  5
4194
  8
0
 10
-53.478232928408687
 20
21.936505172426109
 30
0.0
  0
SEQEND
  5
4195
  8
0
  0
POINT
  5
3D8C
  8
0
  6
BYBLOCK
 10
-53.899421358336667
 20
18.979750389939291
 30
0.0
  0
POINT
  5
3D8D
  8
0
  6
BYBLOCK
 10
-53.899421358336667
 20
18.979750389939291
 30
0.0
  0
POLYLINE
  5
3D8E
  8
0
 66
     1
 10
0.0
 20
0.0
 30
0.0
  0
VERTEX
  5
4196
  8
0
 10
-42.796547288538846
 20
9.1174195924797772
 30
0.0
  0
VERTEX
  5
4197
  8
0
 10
-42.394263662052801
 20
9.0892891809825311
 30
0.0
 42
-0.3939104756149426
  0
VERTEX
  5
4198
  8
0
 10
-42.365193551857303
 20
9.0581153044119134
 30
0.0
  0
VERTEX
  5
4199
  8
0
 10
-42.365193551857303
 20
8.6375714578901022
 30
0.0
  0
SEQEND
  5
419A
  8
0
  0
POLYLINE
  5
3D8F
  8
0
 66
     1
 10
0.0
 20
0.0
 30
0.0
 70
     1
  0
VERTEX
  5
419B
  8
0
 10
-42.383168879364682
 20
8.7769994578900832
 30
0.0
  0
VERTEX
  5
419C
  8
0
 10
-42.365193551857303
 20
8.7769994578900832
 30
0.0
  0
VERTEX
  5
419D
  8
0
 10
-42.365193551857303
 20
9.0381434578900794
 30
0.0
  0
VERTEX
  5
419E
  8
0
 10
-42.383168879364682
 20
9.0381434578900794
 30
0.0
 42
0.2633159308165227
  0
VERTEX
  5
419F
  8
0
 10
-42.402302483183462
 20
9.0273163950649433
 30
0.0
 42
0.2772482031983587
  0
VERTEX
  5
41A0
  8
0
 10
-42.402302483183483
 20
8.7878265207152211
 30
0.0
 42
0.2633159308165216
  0
SEQEND
  5
41A1
  8
0
  0
LINE
  5
3D90
  8
0
 10
-42.260193551857299
 20
8.6825714578901056
 30
0.0
 11
-42.215193551857297
 21
8.6825714578901056
 31
0.0
  0
POLYLINE
  5
3D91
  8
0
 66
     1
 10
0.0
 20
0.0
 30
0.0
 70
     1
  0
VERTEX
  5
41A2
  8
0
 10
-42.814120684729247
 20
9.3231964376045724
 30
0.0
  0
VERTEX
  5
41A3
  8
0
 10
-42.844047606237041
 20
9.3211037433922481
 30
0.0
 42
-0.4142135623730951
  0
VERTEX
  5
41A4
  8
0
 10
-42.876067221957157
 20
9.3489379706877145
 30
0.0
  0
VERTEX
  5
41A5
  8
0
 10
-42.90676007040458
 20
9.7878661528020388
 30
0.0
 42
-0.4142135623730951
  0
VERTEX
  5
41A6
  8
0
 10
-42.878925843109108
 20
9.8198857685221554
 30
0.0
  0
VERTEX
  5
41A7
  8
0
 10
-42.849456322102291
 20
9.8219464781756685
 30
0.0
  0
SEQEND
  5
41A8
  8
0
  0
TEXT
  5
3D92
  8
0
 10
-44.76125179586392
 20
15.03015239469981
 30
0.0
 40
0.15
  1
0.90 [23]
  7
1
  0
TEXT
  5
3D93
  8
0
 10
-44.76125179586392
 20
14.82747878758981
 30
0.0
 40
0.15
  1
depth behind the
  7
1
  0
TEXT
  5
3D94
  8
0
 10
-44.76125179586392
 20
14.63520542715351
 30
0.0
 40
0.15
  1
front of a panel
  7
1
  0
TEXT
  5
3D95
  8
0
  6
BYBLOCK
 10
-50.435576388034761
 20
25.886737558618361
 30
0.0
 40
0.15
  1
8.12 [206]
  7
1
 72
     4
 11
-49.96940839957044
 21
25.939729627832492
 31
0.0
  0
LINE
  5
3D98
  8
0
 10
-53.779421358336677
 20
25.939729627832492
 30
0.0
 11
-50.557815745602241
 21
25.939729627832492
 31
0.0
  0
LINE
  5
3D99
  8
0
  6
BYBLOCK
 10
-54.029421358336691
 20
23.974733626444369
 30
0.0
 11
-54.029421358336691
 21
26.023079571683262
 31
0.0
  0
POINT
  5
3D9A
  8
0
  6
BYBLOCK
 10
-53.899421358336667
 20
23.979733626444371
 30
0.0
  0
POINT
  5
3D9B
  8
0
  6
BYBLOCK
 10
-54.029421358336691
 20
23.849733626444369
 30
0.0
  0
LINE
  5
3D9C
  8
0
 10
-52.967369587045262
 20
23.11933220941124
 30
0.0
 11
-52.967369587045262
 21
23.11933220941124
 31
0.0
  0
INSERT
  5
3D9D
  8
0
  2
DA
 10
-54.029421358336691
 20
25.939729627832492
 30
0.0
 41
0.25
 42
0.25
 43
0.25
 50
180.0
  0
LINE
  5
3D9E
  8
0
 10
-46.159395440804218
 20
25.939729627832492
 30
0.0
 11
-49.41869730335803
 21
25.939729627832492
 31
0.0
  0
LINE
  5
3D9F
  8
0
  6
BYBLOCK
 10
-45.909395440804232
 20
23.974733626444369
 30
0.0
 11
-45.909395440804232
 21
26.071771123802009
 31
0.0
  0
POINT
  5
3DA0
  8
0
  6
BYBLOCK
 10
-45.909395440804232
 20
23.849733626444369
 30
0.0
  0
INSERT
  5
3DA1
  8
0
  2
DA
 10
-45.909395440804232
 20
25.939729627832492
 30
0.0
 41
0.25
 42
0.25
 43
0.25
  0
LINE
  5
3DA2
  8
0
 10
-43.114158025262718
 20
13.610892801985351
 30
0.0
 11
-43.114158025262718
 21
15.1461496665477
 31
0.0
  0
LINE
  5
3DA3
  8
0
 10
-42.215193551857297
 20
14.43918725991966
 30
0.0
 11
-42.215193551857297
 21
15.155565563685149
 31
0.0
  0
LINE
  5
3DA4
  8
0
 10
-42.215193551857297
 20
15.08033256112768
 30
0.0
 11
-43.808639703159457
 21
15.08033256112768
 31
0.0
  0
LINE
  5
3DA5
  8
0
 10
-42.505565490398588
 20
13.814029899367419
 30
0.0
 11
-42.485666806760712
 21
13.615022255319561
 31
0.0
  0
LINE
  5
3DA6
  8
0
 10
-42.864618980591793
 20
13.77812830450852
 30
0.0
 11
-42.844720296953902
 21
13.57912066046066
 31
0.0
  0
POLYLINE
  5
3DA7
  8
0
 66
     1
 10
0.0
 20
0.0
 30
0.0
 70
     1
  0
VERTEX
  5
41A9
  8
0
 10
-43.024247042050497
 20
13.561169863031211
 30
0.0
  0
VERTEX
  5
41AA
  8
0
 10
-43.044145725688381
 20
13.760177507079071
 30
0.0
  0
VERTEX
  5
41AB
  8
0
 10
-42.326038745301972
 20
13.831980696796871
 30
0.0
  0
VERTEX
  5
41AC
  8
0
 10
-42.306140061664102
 20
13.63297305274901
 30
0.0
  0
SEQEND
  5
41AD
  8
0
  0
POLYLINE
  5
3DA8
  8
0
 66
     1
 10
0.0
 20
0.0
 30
0.0
  0
VERTEX
  5
41AE
  8
0
 10
-43.086648305257839
 20
13.151622427023311
 30
0.0
  0
VERTEX
  5
41AF
  8
0
 10
-42.396443551857303
 20
13.20207145789011
 30
0.0
 42
0.4142135623730951
  0
VERTEX
  5
41B0
  8
0
 10
-42.365193551857303
 20
13.23332145789011
 30
0.0
  0
VERTEX
  5
41B1
  8
0
 10
-42.365193551857303
 20
13.627071457890111
 30
0.0
  0
SEQEND
  5
41B2
  8
0
  0
POLYLINE
  5
3DA9
  8
0
 66
     1
 10
0.0
 20
0.0
 30
0.0
  0
VERTEX
  5
41B3
  8
0
 10
-42.260193551857299
 20
13.59707145789011
 30
0.0
  0
VERTEX
  5
41B4
  8
0
 10
-42.215193551857297
 20
13.59707145789011
 30
0.0
  0
SEQEND
  5
41B5
  8
0
  0
POLYLINE
  5
3DAA
  8
0
 66
     1
 10
0.0
 20
0.0
 30
0.0
 70
     1
  0
VERTEX
  5
41B6
  8
0
 10
-42.383168879364661
 20
13.23699945789008
 30
0.0
  0
VERTEX
  5
41B7
  8
0
 10
-42.365193551857303
 20
13.23699945789008
 30
0.0
  0
VERTEX
  5
41B8
  8
0
 10
-42.365193551857303
 20
13.49814345789008
 30
0.0
  0
VERTEX
  5
41B9
  8
0
 10
-42.383168879364661
 20
13.49814345789008
 30
0.0
 42
0.2633159308165227
  0
VERTEX
  5
41BA
  8
0
 10
-42.402302483183462
 20
13.487316395064941
 30
0.0
 42
0.2772482031983587
  0
VERTEX
  5
41BB
  8
0
 10
-42.402302483183483
 20
13.24782652071522
 30
0.0
 42
0.2633159308165216
  0
SEQEND
  5
41BC
  8
0
  0
POLYLINE
  5
3DAB
  8
0
 66
     1
 10
0.0
 20
0.0
 30
0.0
 70
     1
  0
VERTEX
  5
41BD
  8
0
 10
-43.04308091358709
 20
12.538196437605411
 30
0.0
  0
VERTEX
  5
41BE
  8
0
 10
-43.073007835094877
 20
12.53610374339309
 30
0.0
 42
-0.4142135623730951
  0
VERTEX
  5
41BF
  8
0
 10
-43.105027450815001
 20
12.56393797068856
 30
0.0
  0
VERTEX
  5
41C0
  8
0
 10
-43.135720299262417
 20
13.002866152802881
 30
0.0
 42
-0.4142135623730951
  0
VERTEX
  5
41C1
  8
0
 10
-43.107886071966952
 20
13.034885768523001
 30
0.0
  0
VERTEX
  5
41C2
  8
0
 10
-43.078416550960128
 20
13.03694647817651
 30
0.0
  0
SEQEND
  5
41C3
  8
0
  0
LINE
  5
3DAC
  8
0
 10
-42.856558777095188
 20
13.869171889264811
 30
0.0
 11
-42.531492703894052
 21
13.901675097787191
 31
0.0
  0
LINE
  5
3DAD
  8
0
 10
-42.928095904681619
 20
13.814150030966379
 30
0.0
 11
-42.45047755896676
 21
13.86190687169729
 31
0.0
  0
LINE
  5
3DAE
  8
0
 10
-42.937573922022501
 20
13.90894011535473
 30
0.0
 11
-42.459955576307621
 21
13.95669695608564
 31
0.0
  0
POLYLINE
  5
3DAF
  8
0
 66
     1
 10
0.0
 20
0.0
 30
0.0
  0
VERTEX
  5
41C4
  8
0
 10
-43.020585871936611
 20
14.136091451718601
 30
0.0
  0
VERTEX
  5
41C5
  8
0
 10
-43.028957313095241
 20
14.21981461715921
 30
0.0
 42
-0.4142135623730951
  0
VERTEX
  5
41C6
  8
0
 10
-42.921491936849243
 20
14.351158413770641
 30
0.0
  0
VERTEX
  5
41C7
  8
0
 10
-42.563278177563099
 20
14.38697604431883
 30
0.0
 42
-0.4142135623730951
  0
VERTEX
  5
41C8
  8
0
 10
-42.431934380951652
 20
14.279510668072829
 30
0.0
  0
VERTEX
  5
41C9
  8
0
 10
-42.423562939793037
 20
14.19578750263233
 30
0.0
  0
SEQEND
  5
41CA
  8
0
  0
POLYLINE
  5
3DB0
  8
0
 66
     1
 10
0.0
 20
0.0
 30
0.0
 70
     1
  0
VERTEX
  5
41CB
  8
0
 10
-42.358443255491537
 20
14.1560596834629
 30
0.0
  0
VERTEX
  5
41CC
  8
0
 10
-42.343534199737213
 20
14.006953535807909
 30
0.0
  0
VERTEX
  5
41CD
  8
0
 10
-43.061641180123623
 20
13.93515034609011
 30
0.0
  0
VERTEX
  5
41CE
  8
0
 10
-43.076550235877967
 20
14.0842564937451
 30
0.0
 42
-0.5559226996068382
  0
VERTEX
  5
41CF
  8
0
 10
-42.897023490781358
 20
14.102207291174549
 30
0.0
 42
-0.2779613498034132
  0
VERTEX
  5
41D0
  8
0
 10
-42.537970000588153
 20
14.13810888603345
 30
0.0
 42
-0.5559226996068382
  0
SEQEND
  5
41D1
  8
0
  0
LINE
  5
3DB1
  8
0
 10
-42.453196255923388
 20
14.196985781141059
 30
0.0
 11
-42.991776491213187
 21
14.143133388852689
 31
0.0
  0
LINE
  5
3DB2
  8
0
 10
-42.537970000588153
 20
14.13810888603345
 30
0.0
 11
-42.523060944833823
 21
13.98900273837846
 31
0.0
  0
LINE
  5
3DB3
  8
0
 10
-42.463778517072967
 20
13.994930361314459
 30
0.0
 11
-42.446283062637747
 21
13.819957522303429
 31
0.0
  0
INSERT
  5
3DB4
  8
0
  2
DA
 10
-42.215193551857297
 20
15.08033256112768
 30
0.0
 41
-0.25
 42
0.25
 43
0.25
  0
LINE
  5
3DB5
  8
0
 10
-42.941396862787848
 20
13.94717352058356
 30
0.0
 11
-42.923901408352613
 21
13.772200681572521
 31
0.0
  0
LINE
  5
3DB6
  8
0
 10
-42.897023490781358
 20
14.102207291174549
 30
0.0
 11
-42.882114435027013
 21
13.953101143519561
 31
0.0
  0
INSERT
  5
3DB7
  8
0
  2
DA
 10
-43.114158025262718
 20
15.08033256112768
 30
0.0
 41
-0.25
 42
0.25
 43
0.25
 50
180.0
  0
POLYLINE
  5
3DB8
  8
0
 66
     1
 10
0.0
 20
0.0
 30
0.0
 70
     1
  0
VERTEX
  5
41D2
  8
0
 10
-56.713508457290139
 20
6.366263390689701
 30
0.0
  0
VERTEX
  5
41D3
  8
0
 10
-39.713508457290139
 20
6.366263390689701
 30
0.0
  0
VERTEX
  5
41D4
  8
0
 10
-39.713508457290139
 20
28.366263390689699
 30
0.0
  0
VERTEX
  5
41D5
  8
0
 10
-56.713508457290139
 20
28.366263390689699
 30
0.0
  0
SEQEND
  5
41D6
  8
0
  0
TEXT
  5
3DBA
  8
0
 10
-55.035958114046231
 20
27.267585840621411
 30
0.0
 40
0.25
  1
http//www.maple-systems.com
  7
1
 72
     4
 11
-52.739364747067143
 21
27.355905955978301
 31
0.0
  0
LINE
  5
3DBB
  8
0
 10
-48.207640609640862
 20
26.421524850874061
 30
0.0
 11
-48.207640609640862
 21
28.269812400234759
 31
0.0
  0
TEXT
  5
3DBD
  8
0
 10
-54.545031187625611
 20
26.627088086492979
 30
0.0
 40
0.25
  1
Last revised Oct. 2, 2000
  7
1
 72
     1
 11
-52.689497662030803
 21
26.752088086492979
 31
0.0
 73
     2
  0
TEXT
  5
3DBE
  8
0
 10
-55.158405980454127
 20
27.757115486986571
 30
0.0
 40
0.4
  1
Maple Systems, Inc.
  7
2
 72
     4
 11
-52.626469564269158
 21
27.893676180628191
 31
0.0
  0
TEXT
  5
3DBF
  8
0
 10
-45.353969499653168
 20
26.900995881055231
 30
0.0
 40
0.4
  1
MAP450
  7
2
 72
     4
 11
-44.236194933179178
 21
27.096949638280659
 31
0.0
  0
TEXT
  5
3DC0
  8
0
 10
-46.916541753988433
 20
27.464238907283789
 30
0.0
 40
0.4
  1
Dimensional Outline,
  7
2
 72
     4
 11
-44.236194933179178
 21
27.612938329249111
 31
0.0
  0
LINE
  5
3E27
  8
0
 10
-46.70899939921491
 20
17.726990642212002
 30
0.0
 11
-46.70899939921491
 21
17.577140973503671
 31
0.0
  0
LINE
  5
3E28
  8
0
 10
-47.069843317458421
 20
17.726990642212002
 30
0.0
 11
-47.069843317458421
 21
17.577140973503671
 31
0.0
  0
POLYLINE
  5
3E29
  8
0
 66
     1
 10
0.0
 20
0.0
 30
0.0
 70
     1
  0
VERTEX
  5
41D7
  8
0
 10
-47.250265276580187
 20
17.726990642212009
 30
0.0
  0
VERTEX
  5
41D8
  8
0
 10
-47.250265276580187
 20
17.577140973503671
 30
0.0
  0
VERTEX
  5
41D9
  8
0
 10
-46.528577440093152
 20
17.577140973503671
 30
0.0
  0
VERTEX
  5
41DA
  8
0
 10
-46.528577440093152
 20
17.726990642212009
 30
0.0
 42
0.5559226996068382
  0
VERTEX
  5
41DB
  8
0
 10
-46.70899939921491
 20
17.726990642212009
 30
0.0
 42
0.2779613498034132
  0
VERTEX
  5
41DC
  8
0
 10
-47.069843317458421
 20
17.726990642212009
 30
0.0
 42
0.5559226996068382
  0
SEQEND
  5
41DD
  8
0
  0
POLYLINE
  5
3E2A
  8
0
 66
     1
 10
0.0
 20
0.0
 30
0.0
  0
VERTEX
  5
41DE
  8
0
 10
-46.034421358336679
 20
12.201995228086661
 30
0.0
  0
VERTEX
  5
41DF
  8
0
 10
-53.904421358336677
 20
12.20199522808665
 30
0.0
 42
-0.4142135623730951
  0
VERTEX
  5
41E0
  8
0
 10
-54.029421358336691
 20
12.32699522808665
 30
0.0
  0
VERTEX
  5
41E1
  8
0
 10
-54.029421358336691
 20
17.076995228086659
 30
0.0
 42
-0.4142135623730951
  0
VERTEX
  5
41E2
  8
0
 10
-53.904421358336677
 20
17.201995228086659
 30
0.0
  0
VERTEX
  5
41E3
  8
0
 10
-47.250265276580187
 20
17.201995228086659
 30
0.0
 42
-0.4142135623730951
  0
SEQEND
  5
41E4
  8
0
  0
TEXT
  5
3E2B
  8
0
 10
-48.826306027660408
 20
11.829574381684621
 30
0.0
 40
0.15
  1
6-32UNC x 0.50 [12.7] 
  7
1
  0
CIRCLE
  5
3E2C
  8
0
 10
-53.049421358336701
 20
13.051995228086669
 30
0.0
 40
0.3125
  0
CIRCLE
  5
3E2D
  8
0
 10
-53.049421358336701
 20
16.26699522808666
 30
0.0
 40
0.3125
  0
POLYLINE
  5
3E2E
  8
0
 66
     1
 10
0.0
 20
0.0
 30
0.0
  0
VERTEX
  5
41E5
  8
0
 10
-53.549421358336687
 20
17.111995228086659
 30
0.0
  0
VERTEX
  5
41E6
  8
0
 10
-52.549421358336687
 20
17.111995228086659
 30
0.0
  0
VERTEX
  5
41E7
  8
0
 10
-52.158955587829318
 20
17.201995228086659
 30
0.0
  0
SEQEND
  5
41E8
  8
0
  0
POLYLINE
  5
3E2F
  8
0
 66
     1
 10
0.0
 20
0.0
 30
0.0
  0
VERTEX
  5
41E9
  8
0
 10
-53.54942135833668
 20
17.111995228086659
 30
0.0
  0
VERTEX
  5
41EA
  8
0
 10
-53.54942135833668
 20
12.20199522808665
 30
0.0
  0
SEQEND
  5
41EB
  8
0
  0
POLYLINE
  5
3E30
  8
0
 66
     1
 10
0.0
 20
0.0
 30
0.0
  0
VERTEX
  5
41EC
  8
0
 10
-53.549421358336687
 20
12.201995228086661
 30
0.0
  0
VERTEX
  5
41ED
  8
0
 10
-53.549421358336687
 20
12.431995228086659
 30
0.0
 42
0.4142135623730936
  0
VERTEX
  5
41EE
  8
0
 10
-53.799421358336687
 20
12.681995228086651
 30
0.0
  0
VERTEX
  5
41EF
  8
0
 10
-54.029421358336691
 20
12.681995228086651
 30
0.0
  0
SEQEND
  5
41F0
  8
0
  0
POLYLINE
  5
3E31
  8
0
 66
     1
 10
0.0
 20
0.0
 30
0.0
 70
     1
  0
VERTEX
  5
41F1
  8
0
 10
-53.741245858336669
 20
12.45381972808666
 30
0.0
  0
VERTEX
  5
41F2
  8
0
 10
-53.741245858336669
 20
12.399293228086661
 30
0.0
  0
VERTEX
  5
41F3
  8
0
 10
-53.777596858336679
 20
12.399293228086661
 30
0.0
  0
VERTEX
  5
41F4
  8
0
 10
-53.777596858336679
 20
12.45381972808666
 30
0.0
  0
VERTEX
  5
41F5
  8
0
 10
-53.83212335833668
 20
12.45381972808666
 30
0.0
  0
VERTEX
  5
41F6
  8
0
 10
-53.83212335833668
 20
12.49017072808666
 30
0.0
  0
VERTEX
  5
41F7
  8
0
 10
-53.777596858336679
 20
12.49017072808666
 30
0.0
  0
VERTEX
  5
41F8
  8
0
 10
-53.777596858336679
 20
12.54469722808666
 30
0.0
  0
VERTEX
  5
41F9
  8
0
 10
-53.741245858336669
 20
12.54469722808666
 30
0.0
  0
VERTEX
  5
41FA
  8
0
 10
-53.741245858336669
 20
12.49017072808666
 30
0.0
  0
VERTEX
  5
41FB
  8
0
 10
-53.686719358336688
 20
12.49017072808666
 30
0.0
  0
VERTEX
  5
41FC
  8
0
 10
-53.686719358336688
 20
12.45381972808666
 30
0.0
  0
SEQEND
  5
41FD
  8
0
  0
CIRCLE
  5
3E32
  8
0
 10
-53.759421358336681
 20
12.47199522808665
 30
0.0
 40
0.135018
  0
POLYLINE
  5
3E33
  8
0
 66
     1
 10
0.0
 20
0.0
 30
0.0
 70
     1
  0
VERTEX
  5
41FE
  8
0
 10
-53.741245858336669
 20
16.913819728086661
 30
0.0
  0
VERTEX
  5
41FF
  8
0
 10
-53.741245858336669
 20
16.85929322808666
 30
0.0
  0
VERTEX
  5
4200
  8
0
 10
-53.777596858336679
 20
16.85929322808666
 30
0.0
  0
VERTEX
  5
4201
  8
0
 10
-53.777596858336679
 20
16.913819728086661
 30
0.0
  0
VERTEX
  5
4202
  8
0
 10
-53.83212335833668
 20
16.913819728086661
 30
0.0
  0
VERTEX
  5
4203
  8
0
 10
-53.83212335833668
 20
16.950170728086661
 30
0.0
  0
VERTEX
  5
4204
  8
0
 10
-53.777596858336679
 20
16.950170728086661
 30
0.0
  0
VERTEX
  5
4205
  8
0
 10
-53.777596858336679
 20
17.004697228086659
 30
0.0
  0
VERTEX
  5
4206
  8
0
 10
-53.741245858336669
 20
17.004697228086659
 30
0.0
  0
VERTEX
  5
4207
  8
0
 10
-53.741245858336669
 20
16.950170728086661
 30
0.0
  0
VERTEX
  5
4208
  8
0
 10
-53.686719358336688
 20
16.950170728086661
 30
0.0
  0
VERTEX
  5
4209
  8
0
 10
-53.686719358336688
 20
16.913819728086661
 30
0.0
  0
SEQEND
  5
420A
  8
0
  0
CIRCLE
  5
3E34
  8
0
 10
-53.759421358336681
 20
16.931995228086659
 30
0.0
 40
0.135018
  0
POLYLINE
  5
3E35
  8
0
 66
     1
 10
0.0
 20
0.0
 30
0.0
  0
VERTEX
  5
420B
  8
0
 10
-53.549421358336687
 20
17.201995228086659
 30
0.0
  0
VERTEX
  5
420C
  8
0
 10
-53.549421358336687
 20
16.971995228086659
 30
0.0
 42
-0.4142135623730939
  0
VERTEX
  5
420D
  8
0
 10
-53.799421358336687
 20
16.721995228086669
 30
0.0
  0
VERTEX
  5
420E
  8
0
 10
-54.029421358336691
 20
16.721995228086669
 30
0.0
  0
SEQEND
  5
420F
  8
0
  0
POLYLINE
  5
3E36
  8
0
 66
     1
 10
0.0
 20
0.0
 30
0.0
  0
VERTEX
  5
4210
  8
0
 10
-52.54942135833668
 20
12.20199522808665
 30
0.0
  0
VERTEX
  5
4211
  8
0
 10
-52.158955587829318
 20
17.201995228086659
 30
0.0
  0
SEQEND
  5
4212
  8
0
  0
POLYLINE
  5
3E37
  8
0
 66
     1
 10
0.0
 20
0.0
 30
0.0
  0
VERTEX
  5
4213
  8
0
 10
-52.54942135833668
 20
17.111995228086659
 30
0.0
  0
VERTEX
  5
4214
  8
0
 10
-52.54942135833668
 20
12.20199522808665
 30
0.0
  0
SEQEND
  5
4215
  8
0
  0
TEXT
  5
3E38
  8
0
 10
-52.70152809723654
 20
11.617162143720639
 30
0.0
 40
0.15
  1
for Pedestal Mounting only
  7
1
  0
TEXT
  5
3E39
  8
0
 10
-52.70152809723654
 20
11.83608356719745
 30
0.0
 40
0.15
  1
6-32UNC x 0.30 [7.6] deep threads,
  7
1
  0
CIRCLE
  5
3E3A
  8
0
  6
HIDDEN
 10
-52.669421358336677
 20
12.381995228086661
 30
0.0
 40
0.069
  0
CIRCLE
  5
3E3B
  8
0
 10
-52.669421358336677
 20
12.381995228086661
 30
0.0
 40
0.055
  0
LINE
  5
3E3C
  8
0
 10
-52.817071051614839
 20
12.15755407366227
 30
0.0
 11
-52.9929418649863
 21
11.90683439852414
 31
0.0
  0
INSERT
  5
3E3D
  8
0
  2
DA
 10
-52.702217767050271
 20
12.32128776910927
 30
0.0
 41
0.1999999999999996
 42
0.2000000000000002
 43
0.2
 50
54.951724490078661
  0
POLYLINE
  5
3E3E
  8
0
 66
     1
 10
0.0
 20
0.0
 30
0.0
 70
     1
  0
VERTEX
  5
4216
  8
0
 10
-48.569421358336683
 20
15.71074522808666
 30
0.0
  0
VERTEX
  5
4217
  8
0
 10
-48.569421358336683
 20
16.823245228086659
 30
0.0
 42
0.4142135623730951
  0
VERTEX
  5
4218
  8
0
 10
-48.663171358336683
 20
16.916995228086659
 30
0.0
  0
VERTEX
  5
4219
  8
0
 10
-51.27567135833668
 20
16.916995228086659
 30
0.0
 42
0.4142135623730951
  0
VERTEX
  5
421A
  8
0
 10
-51.369421358336687
 20
16.823245228086659
 30
0.0
  0
VERTEX
  5
421B
  8
0
 10
-51.369421358336687
 20
15.71074522808666
 30
0.0
 42
0.4142135623730951
  0
VERTEX
  5
421C
  8
0
 10
-51.27567135833668
 20
15.61699522808666
 30
0.0
  0
VERTEX
  5
421D
  8
0
 10
-48.663171358336683
 20
15.61699522808666
 30
0.0
 42
0.4142135623730951
  0
SEQEND
  5
421E
  8
0
  0
CIRCLE
  5
3E3F
  8
0
 10
-52.669421358336677
 20
16.98199522808666
 30
0.0
 40
0.055
  0
CIRCLE
  5
3E40
  8
0
  6
HIDDEN
 10
-52.669421358336677
 20
16.98199522808666
 30
0.0
 40
0.069
  0
POLYLINE
  5
3E41
  8
0
 66
     1
 10
0.0
 20
0.0
 30
0.0
  0
VERTEX
  5
421F
  8
0
 10
-46.528577440093159
 20
17.201995228086659
 30
0.0
  0
VERTEX
  5
4220
  8
0
 10
-46.034421358336679
 20
17.201995228086659
 30
0.0
 42
-0.4142135623730951
  0
VERTEX
  5
4221
  8
0
 10
-45.909421358336672
 20
17.076995228086659
 30
0.0
  0
VERTEX
  5
4222
  8
0
 10
-45.909421358336672
 20
12.326995228086661
 30
0.0
 42
-0.4142135623730951
  0
VERTEX
  5
4223
  8
0
 10
-46.034421358336679
 20
12.201995228086661
 30
0.0
  0
SEQEND
  5
4224
  8
0
  0
POLYLINE
  5
3E42
  8
0
 66
     1
 10
0.0
 20
0.0
 30
0.0
  0
VERTEX
  5
4225
  8
0
 10
-47.389421358336662
 20
17.111995228086659
 30
0.0
  0
VERTEX
  5
4226
  8
0
 10
-47.389421358336662
 20
12.20199522808665
 30
0.0
  0
SEQEND
  5
4227
  8
0
  0
POLYLINE
  5
3E43
  8
0
 66
     1
 10
0.0
 20
0.0
 30
0.0
  0
VERTEX
  5
4228
  8
0
 10
-47.389421358336662
 20
12.20199522808665
 30
0.0
  0
VERTEX
  5
4229
  8
0
 10
-47.779887128844031
 20
17.201995228086659
 30
0.0
  0
SEQEND
  5
422A
  8
0
  0
POLYLINE
  5
3E44
  8
0
 66
     1
 10
0.0
 20
0.0
 30
0.0
  0
VERTEX
  5
422B
  8
0
 10
-46.389421358336669
 20
17.111995228086659
 30
0.0
  0
VERTEX
  5
422C
  8
0
 10
-46.389421358336669
 20
12.20199522808665
 30
0.0
  0
SEQEND
  5
422D
  8
0
  0
CIRCLE
  5
3E45
  8
0
 10
-46.889421358336669
 20
13.051995228086669
 30
0.0
 40
0.3125
  0
CIRCLE
  5
3E46
  8
0
 10
-47.269421358336679
 20
12.381995228086661
 30
0.0
 40
0.055
  0
CIRCLE
  5
3E47
  8
0
  6
HIDDEN
 10
-47.269421358336679
 20
12.381995228086661
 30
0.0
 40
0.069
  0
INSERT
  5
3E48
  8
0
  2
DA
 10
-46.270783044195227
 20
12.37258243876313
 30
0.0
 41
0.2000000000000003
 42
0.2000000000000002
 43
0.2
 50
35.168243581108342
  0
CIRCLE
  5
3E49
  8
0
 10
-46.179421358336683
 20
12.47199522808665
 30
0.0
 40
0.135018
  0
POLYLINE
  5
3E4A
  8
0
 66
     1
 10
0.0
 20
0.0
 30
0.0
  0
VERTEX
  5
422E
  8
0
 10
-46.389421358336669
 20
12.201995228086661
 30
0.0
  0
VERTEX
  5
422F
  8
0
 10
-46.389421358336669
 20
12.431995228086659
 30
0.0
 42
-0.4142135623730935
  0
VERTEX
  5
4230
  8
0
 10
-46.139421358336669
 20
12.681995228086651
 30
0.0
  0
VERTEX
  5
4231
  8
0
 10
-45.909421358336672
 20
12.681995228086651
 30
0.0
  0
SEQEND
  5
4232
  8
0
  0
LINE
  5
3E4B
  8
0
 10
-46.434275896747756
 20
12.25738657440926
 30
0.0
 11
-46.754213342954849
 21
12.03196099720761
 31
0.0
  0
POLYLINE
  5
3E4C
  8
0
 66
     1
 10
0.0
 20
0.0
 30
0.0
 70
     1
  0
VERTEX
  5
4233
  8
0
 10
-46.16124585833667
 20
12.45381972808666
 30
0.0
  0
VERTEX
  5
4234
  8
0
 10
-46.16124585833667
 20
12.399293228086661
 30
0.0
  0
VERTEX
  5
4235
  8
0
 10
-46.197596858336681
 20
12.399293228086661
 30
0.0
  0
VERTEX
  5
4236
  8
0
 10
-46.197596858336681
 20
12.45381972808666
 30
0.0
  0
VERTEX
  5
4237
  8
0
 10
-46.252123358336682
 20
12.45381972808666
 30
0.0
  0
VERTEX
  5
4238
  8
0
 10
-46.252123358336682
 20
12.49017072808666
 30
0.0
  0
VERTEX
  5
4239
  8
0
 10
-46.197596858336681
 20
12.49017072808666
 30
0.0
  0
VERTEX
  5
423A
  8
0
 10
-46.197596858336681
 20
12.54469722808666
 30
0.0
  0
VERTEX
  5
423B
  8
0
 10
-46.16124585833667
 20
12.54469722808666
 30
0.0
  0
VERTEX
  5
423C
  8
0
 10
-46.16124585833667
 20
12.49017072808666
 30
0.0
  0
VERTEX
  5
423D
  8
0
 10
-46.106719358336669
 20
12.49017072808666
 30
0.0
  0
VERTEX
  5
423E
  8
0
 10
-46.106719358336669
 20
12.45381972808666
 30
0.0
  0
SEQEND
  5
423F
  8
0
  0
CIRCLE
  5
3E4D
  8
0
 10
-46.889421358336669
 20
16.26699522808666
 30
0.0
 40
0.3125
  0
LINE
  5
3E4E
  8
0
 10
-46.64942135833666
 20
17.515304769680551
 30
0.0
 11
-47.129421358336657
 21
17.515304769680551
 31
0.0
  0
LINE
  5
3E4F
  8
0
 10
-46.64942135833666
 20
17.42004201247153
 30
0.0
 11
-47.129421358336657
 21
17.42004201247153
 31
0.0
  0
LINE
  5
3E50
  8
0
 10
-46.726077847208543
 20
17.467673391076051
 30
0.0
 11
-47.052764869464802
 21
17.467673391076051
 31
0.0
  0
LINE
  5
3E51
  8
0
 10
-46.726077847208543
 20
17.37241063386703
 30
0.0
 11
-47.052764869464802
 21
17.37241063386703
 31
0.0
  0
POLYLINE
  5
3E52
  8
0
 66
     1
 10
0.0
 20
0.0
 30
0.0
 70
     1
  0
VERTEX
  5
4240
  8
0
 10
-46.528577440093152
 20
17.127140973503671
 30
0.0
  0
VERTEX
  5
4241
  8
0
 10
-46.528577440093152
 20
17.327140973503671
 30
0.0
  0
VERTEX
  5
4242
  8
0
 10
-47.250265276580187
 20
17.327140973503671
 30
0.0
  0
VERTEX
  5
4243
  8
0
 10
-47.250265276580187
 20
17.127140973503671
 30
0.0
  0
SEQEND
  5
4244
  8
0
  0
POLYLINE
  5
3E53
  8
0
 66
     1
 10
0.0
 20
0.0
 30
0.0
  0
VERTEX
  5
4245
  8
0
 10
-46.389421358336669
 20
17.111995228086659
 30
0.0
  0
VERTEX
  5
4246
  8
0
 10
-47.389421358336683
 20
17.111995228086659
 30
0.0
  0
VERTEX
  5
4247
  8
0
 10
-47.779887128844031
 20
17.201995228086659
 30
0.0
  0
SEQEND
  5
4248
  8
0
  0
LINE
  5
3E54
  8
0
 10
-47.069843317458421
 20
17.327140973503671
 30
0.0
 11
-47.069843317458421
 21
17.127140973503671
 31
0.0
  0
CIRCLE
  5
3E55
  8
0
 10
-47.269421358336679
 20
16.98199522808666
 30
0.0
 40
0.055
  0
CIRCLE
  5
3E56
  8
0
  6
HIDDEN
 10
-47.269421358336679
 20
16.98199522808666
 30
0.0
 40
0.069
  0
LINE
  5
3E57
  8
0
 10
-47.129421358336657
 20
17.577140973503671
 30
0.0
 11
-47.129421358336657
 21
17.327140973503671
 31
0.0
  0
POLYLINE
  5
3E58
  8
0
 66
     1
 10
0.0
 20
0.0
 30
0.0
 70
     1
  0
VERTEX
  5
4249
  8
0
 10
-46.16124585833667
 20
16.913819728086661
 30
0.0
  0
VERTEX
  5
424A
  8
0
 10
-46.16124585833667
 20
16.85929322808666
 30
0.0
  0
VERTEX
  5
424B
  8
0
 10
-46.197596858336681
 20
16.85929322808666
 30
0.0
  0
VERTEX
  5
424C
  8
0
 10
-46.197596858336681
 20
16.913819728086661
 30
0.0
  0
VERTEX
  5
424D
  8
0
 10
-46.252123358336682
 20
16.913819728086661
 30
0.0
  0
VERTEX
  5
424E
  8
0
 10
-46.252123358336682
 20
16.950170728086661
 30
0.0
  0
VERTEX
  5
424F
  8
0
 10
-46.197596858336681
 20
16.950170728086661
 30
0.0
  0
VERTEX
  5
4250
  8
0
 10
-46.197596858336681
 20
17.004697228086659
 30
0.0
  0
VERTEX
  5
4251
  8
0
 10
-46.16124585833667
 20
17.004697228086659
 30
0.0
  0
VERTEX
  5
4252
  8
0
 10
-46.16124585833667
 20
16.950170728086661
 30
0.0
  0
VERTEX
  5
4253
  8
0
 10
-46.106719358336669
 20
16.950170728086661
 30
0.0
  0
VERTEX
  5
4254
  8
0
 10
-46.106719358336669
 20
16.913819728086661
 30
0.0
  0
SEQEND
  5
4255
  8
0
  0
CIRCLE
  5
3E59
  8
0
 10
-46.179421358336683
 20
16.931995228086659
 30
0.0
 40
0.135018
  0
POLYLINE
  5
3E5A
  8
0
 66
     1
 10
0.0
 20
0.0
 30
0.0
  0
VERTEX
  5
4256
  8
0
 10
-46.389421358336683
 20
17.201995228086659
 30
0.0
  0
VERTEX
  5
4257
  8
0
 10
-46.389421358336669
 20
16.971995228086659
 30
0.0
 42
0.4142135623730936
  0
VERTEX
  5
4258
  8
0
 10
-46.139421358336669
 20
16.721995228086669
 30
0.0
  0
VERTEX
  5
4259
  8
0
 10
-45.909421358336672
 20
16.721995228086669
 30
0.0
  0
SEQEND
  5
425A
  8
0
  0
LINE
  5
3E5B
  8
0
 10
-46.70899939921491
 20
17.327140973503671
 30
0.0
 11
-46.70899939921491
 21
17.127140973503671
 31
0.0
  0
LINE
  5
3E5C
  8
0
 10
-46.64942135833666
 20
17.577140973503671
 30
0.0
 11
-46.64942135833666
 21
17.327140973503671
 31
0.0
  0
POLYLINE
  5
3E5D
  8
0
 66
     1
 10
0.0
 20
0.0
 30
0.0
  0
VERTEX
  5
425B
  8
0
 10
-46.589421358336658
 20
17.773000320674811
 30
0.0
  0
VERTEX
  5
425C
  8
0
 10
-46.589421358336658
 20
17.857140973503672
 30
0.0
 42
0.4142135623730951
  0
VERTEX
  5
425D
  8
0
 10
-46.70942135833667
 20
17.977140973503658
 30
0.0
  0
VERTEX
  5
425E
  8
0
 10
-47.069421358336662
 20
17.977140973503658
 30
0.0
 42
0.4142135623730951
  0
VERTEX
  5
425F
  8
0
 10
-47.189421358336674
 20
17.857140973503672
 30
0.0
  0
VERTEX
  5
4260
  8
0
 10
-47.189421358336674
 20
17.7730003206749
 30
0.0
  0
SEQEND
  5
4261
  8
0
  0
LINE
  5
3E5E
  8
0
 10
-47.1600542970193
 20
17.77714097350367
 30
0.0
 11
-46.618788419654017
 21
17.77714097350367
 31
0.0
  0
TEXT
  5
3E5F
  8
0
  6
BYBLOCK
 10
-51.123705424685603
 20
10.97395962570179
 30
0.0
 40
0.25
  1
REAR VIEW
 51
10.0
  7
2
 72
     1
 11
-50.039438806188478
 21
10.97395962570179
 31
0.0
  0
TEXT
  5
3E60
  8
0
  6
BYBLOCK
 10
-51.206456143694169
 20
18.622026598785371
 30
0.0
 40
0.25
  1
FRONT VIEW
 51
10.0
  7
2
 72
     1
 11
-49.998905565659477
 21
18.622026598785371
 31
0.0
  0
TEXT
  5
3E61
  8
0
 10
-48.826306027660408
 20
11.620988503182611
 30
0.0
 40
0.15
  1
SS screw, 4 places
  7
1
  0
LINE
  5
3E62
  8
0
 10
-52.757165760630869
 20
11.90683439852414
 30
0.0
 11
-52.9929418649863
 21
11.90683439852414
 31
0.0
  0
LINE
  5
3E63
  8
0
 10
-46.789421358336682
 20
18.390644394515441
 30
0.0
 11
-46.789421358336682
 21
17.977140973503658
 31
0.0
  0
LINE
  5
3E64
  8
0
 10
-46.989421358336656
 20
18.390644394515441
 30
0.0
 11
-46.989421358336656
 21
17.977140973503658
 31
0.0
  0
ARC
  5
3E65
  8
0
 10
-46.878606595242623
 20
18.390644158156089
 30
0.0
 40
0.0108147630966249
 50
137.1115601753396
 51
179.99874778637911
  0
ARC
  5
3E66
  8
0
 10
-46.878607868240337
 20
18.390645130874798
 30
0.0
 40
0.0108134901213956
 50
180.0039016342831
 51
222.8910892453228
  0
ARC
  5
3E67
  8
0
 10
-46.900236121430709
 20
18.390644158156089
 30
0.0
 40
0.0108147630966249
 50
0.0012522136207714
 51
42.888439824660317
  0
ARC
  5
3E68
  8
0
 10
-46.918777957400643
 20
18.373422549755379
 30
0.0
 40
0.0361205623658225
 50
42.886628378404623
 51
65.965193951901199
  0
ARC
  5
3E69
  8
0
 10
-46.931213818896751
 20
18.345535044017861
 30
0.0
 40
0.0666551923316276
 50
65.965791248073927
 51
79.53451543122722
  0
ARC
  5
3E6A
  8
0
 10
-46.939424014589221
 20
18.30110185998015
 30
0.0
 40
0.1118405345668429
 50
79.533167792661033
 51
89.998639204819597
  0
ARC
  5
3E6B
  8
0
 10
-46.939418702084112
 20
18.30110185998031
 30
0.0
 40
0.1118405345666876
 50
90.001360795187736
 51
100.4668322073464
  0
ARC
  5
3E6C
  8
0
 10
-46.947628897776582
 20
18.345535044017861
 30
0.0
 40
0.0666551923316276
 50
100.46548456877269
 51
114.034208751926
  0
ARC
  5
3E6D
  8
0
 10
-46.960064759272697
 20
18.373422549755311
 30
0.0
 40
0.0361205623658808
 50
114.03480604803281
 51
137.11337162152901
  0
ARC
  5
3E6E
  8
0
 10
-46.978606595242631
 20
18.390644158156121
 30
0.0
 40
0.0108147630966103
 50
137.11156017553219
 51
179.99874778657201
  0
ARC
  5
3E6F
  8
0
 10
-46.839418702084117
 20
18.30110185998031
 30
0.0
 40
0.1118405345666875
 50
90.001360795187736
 51
100.4668322073464
  0
ARC
  5
3E70
  8
0
 10
-46.839424014589227
 20
18.30110185998015
 30
0.0
 40
0.111840534566843
 50
79.533167792661033
 51
89.998639204819597
  0
ARC
  5
3E71
  8
0
 10
-46.831213818896757
 20
18.345535044017861
 30
0.0
 40
0.0666551923316276
 50
65.965791248073927
 51
79.53451543122722
  0
ARC
  5
3E72
  8
0
 10
-46.818777957400648
 20
18.373422549755379
 30
0.0
 40
0.0361205623658225
 50
42.886628378404623
 51
65.965193951901199
  0
ARC
  5
3E73
  8
0
 10
-46.800236121430721
 20
18.390644158156089
 30
0.0
 40
0.0108147630966247
 50
0.0012522136207714
 51
42.888439824660317
  0
ARC
  5
3E74
  8
0
 10
-46.800234848432993
 20
18.390645130874798
 30
0.0
 40
0.0108134901213959
 50
317.10891075467708
 51
359.99609836571682
  0
ARC
  5
3E75
  8
0
 10
-46.818777957400663
 20
18.407867239275522
 30
0.0
 40
0.0361205623658325
 50
294.03480604812057
 51
317.11337162161749
  0
ARC
  5
3E76
  8
0
 10
-46.831213818896778
 20
18.435754745013028
 30
0.0
 40
0.0666551923316363
 50
280.46548456879719
 51
294.03420875195008
  0
ARC
  5
3E77
  8
0
 10
-46.839424014589163
 20
18.480187929050739
 30
0.0
 40
0.1118405345668359
 50
270.00136079514078
 51
280.46683220729921
  0
ARC
  5
3E78
  8
0
 10
-46.839418702084188
 20
18.48018792905059
 30
0.0
 40
0.1118405345666805
 50
259.53316779269329
 51
269.99863920485171
  0
ARC
  5
3E79
  8
0
 10
-46.860064759272689
 20
18.373422549755379
 30
0.0
 40
0.0361205623658225
 50
114.0348060480988
 51
137.11337162159529
  0
ARC
  5
3E7A
  8
0
 10
-46.84762889777658
 20
18.345535044017861
 30
0.0
 40
0.0666551923316276
 50
100.46548456877269
 51
114.034208751926
  0
ARC
  5
3E7B
  8
0
 10
-46.847628897776559
 20
18.435754745013028
 30
0.0
 40
0.0666551923316364
 50
245.96579124804981
 51
259.53451543120281
  0
ARC
  5
3E7C
  8
0
 10
-46.860064759272667
 20
18.407867239275522
 30
0.0
 40
0.0361205623658326
 50
222.8866283783824
 51
245.96519395187929
  0
LINE
  5
3E7D
  8
0
  6
CENTER
 10
-53.00974028951989
 20
23.870830759849209
 30
0.0
 11
-53.00974028951989
 21
25.625120177204622
 31
0.0
  0
LINE
  5
3E7E
  8
0
 10
-53.280373228202528
 20
24.529733626444379
 30
0.0
 11
-52.739107350837251
 21
24.529733626444379
 31
0.0
  0
POLYLINE
  5
3E7F
  8
0
 66
     1
 10
0.0
 20
0.0
 30
0.0
  0
VERTEX
  5
4262
  8
0
 10
-52.709740289519893
 20
24.52559297361552
 30
0.0
  0
VERTEX
  5
4263
  8
0
 10
-52.709740289519893
 20
24.609733626444381
 30
0.0
 42
0.4142135623730951
  0
VERTEX
  5
4264
  8
0
 10
-52.82974028951989
 20
24.729733626444371
 30
0.0
  0
VERTEX
  5
4265
  8
0
 10
-53.189740289519889
 20
24.729733626444371
 30
0.0
 42
0.4142135623730951
  0
VERTEX
  5
4266
  8
0
 10
-53.30974028951988
 20
24.609733626444381
 30
0.0
  0
VERTEX
  5
4267
  8
0
 10
-53.30974028951988
 20
24.525592973615609
 30
0.0
  0
SEQEND
  5
4268
  8
0
  0
POLYLINE
  5
3E80
  8
0
 66
     1
 10
0.0
 20
0.0
 30
0.0
  0
VERTEX
  5
4269
  8
0
 10
-52.648896371276372
 20
23.979733626444371
 30
0.0
  0
VERTEX
  5
426A
  8
0
 10
-52.648896371276372
 20
24.079733626444369
 30
0.0
  0
VERTEX
  5
426B
  8
0
 10
-53.3705842077634
 20
24.079733626444369
 30
0.0
  0
VERTEX
  5
426C
  8
0
 10
-53.3705842077634
 20
23.979733626444371
 30
0.0
  0
SEQEND
  5
426D
  8
0
  0
LINE
  5
3E81
  8
0
 10
-52.769740289519888
 20
24.172634665412239
 30
0.0
 11
-53.249740289519892
 21
24.172634665412239
 31
0.0
  0
LINE
  5
3E82
  8
0
 10
-52.769740289519888
 20
24.26789742262126
 30
0.0
 11
-53.249740289519892
 21
24.26789742262126
 31
0.0
  0
POLYLINE
  5
3E83
  8
0
 66
     1
 10
0.0
 20
0.0
 30
0.0
 70
     1
  0
VERTEX
  5
426E
  8
0
 10
-53.3705842077634
 20
24.479583295152711
 30
0.0
  0
VERTEX
  5
426F
  8
0
 10
-53.3705842077634
 20
24.329733626444369
 30
0.0
  0
VERTEX
  5
4270
  8
0
 10
-52.648896371276372
 20
24.329733626444369
 30
0.0
  0
VERTEX
  5
4271
  8
0
 10
-52.648896371276372
 20
24.479583295152711
 30
0.0
 42
0.5559226996068382
  0
VERTEX
  5
4272
  8
0
 10
-52.829318330398131
 20
24.479583295152711
 30
0.0
 42
0.2779613498034132
  0
VERTEX
  5
4273
  8
0
 10
-53.190162248641641
 20
24.479583295152711
 30
0.0
 42
0.5559226996068382
  0
SEQEND
  5
4274
  8
0
  0
LINE
  5
3E84
  8
0
 10
-53.249740289519892
 20
24.329733626444369
 30
0.0
 11
-53.249740289519892
 21
24.079733626444369
 31
0.0
  0
LINE
  5
3E85
  8
0
 10
-52.829318330398131
 20
24.079733626444369
 30
0.0
 11
-52.829318330398131
 21
23.979733626444371
 31
0.0
  0
LINE
  5
3E86
  8
0
 10
-53.190162248641641
 20
24.079733626444369
 30
0.0
 11
-53.190162248641641
 21
23.979733626444371
 31
0.0
  0
LINE
  5
3E87
  8
0
 10
-52.846396778391771
 20
24.125003286807729
 30
0.0
 11
-53.173083800648008
 21
24.125003286807729
 31
0.0
  0
LINE
  5
3E88
  8
0
 10
-52.846396778391771
 20
24.220266044016761
 30
0.0
 11
-53.173083800648008
 21
24.220266044016761
 31
0.0
  0
LINE
  5
3E89
  8
0
 10
-53.109740289519891
 20
25.14323704745615
 30
0.0
 11
-53.109740289519891
 21
24.729733626444371
 31
0.0
  0
LINE
  5
3E8A
  8
0
 10
-52.909740289519888
 20
25.14323704745615
 30
0.0
 11
-52.909740289519888
 21
24.729733626444371
 31
0.0
  0
LINE
  5
3E8B
  8
0
 10
-53.190162248641641
 20
24.479583295152711
 30
0.0
 11
-53.190162248641641
 21
24.329733626444369
 31
0.0
  0
LINE
  5
3E8C
  8
0
 10
-52.829318330398131
 20
24.479583295152711
 30
0.0
 11
-52.829318330398131
 21
24.329733626444369
 31
0.0
  0
ARC
  5
3E8D
  8
0
 10
-52.959737633267423
 20
25.232780581991289
 30
0.0
 40
0.1118405345666805
 50
259.53316779269329
 51
269.99863920485171
  0
ARC
  5
3E8E
  8
0
 10
-52.959737633267352
 20
25.053694512921009
 30
0.0
 40
0.1118405345666875
 50
90.001360795187736
 51
100.4668322073464
  0
ARC
  5
3E8F
  8
0
 10
-52.959742945772383
 20
25.232780581991442
 30
0.0
 40
0.1118405345668359
 50
270.00136079514078
 51
280.46683220729921
  0
ARC
  5
3E90
  8
0
 10
-52.951532750080013
 20
25.188347397953741
 30
0.0
 40
0.0666551923316363
 50
280.46548456879719
 51
294.03420875195008
  0
ARC
  5
3E91
  8
0
 10
-52.93909688858389
 20
25.160459892216231
 30
0.0
 40
0.0361205623658325
 50
294.03480604812057
 51
317.11337162161749
  0
ARC
  5
3E92
  8
0
 10
-52.92055377961622
 20
25.143237783815511
 30
0.0
 40
0.0108134901213959
 50
317.10891075467708
 51
359.99609836571682
  0
ARC
  5
3E93
  8
0
 10
-52.920555052613942
 20
25.143236811096791
 30
0.0
 40
0.0108147630966247
 50
0.0012522136207714
 51
42.888439824660317
  0
ARC
  5
3E94
  8
0
 10
-52.939096888583869
 20
25.126015202696081
 30
0.0
 40
0.0361205623658225
 50
42.886628378404623
 51
65.965193951901199
  0
ARC
  5
3E95
  8
0
 10
-52.95153275007997
 20
25.098127696958571
 30
0.0
 40
0.0666551923316276
 50
65.965791248073927
 51
79.53451543122722
  0
ARC
  5
3E96
  8
0
 10
-52.959742945772447
 20
25.05369451292086
 30
0.0
 40
0.111840534566843
 50
79.533167792661033
 51
89.998639204819597
  0
ARC
  5
3E97
  8
0
 10
-52.980383690455888
 20
25.160459892216231
 30
0.0
 40
0.0361205623658326
 50
222.8866283783824
 51
245.96519395187929
  0
ARC
  5
3E98
  8
0
 10
-52.96794782895978
 20
25.188347397953741
 30
0.0
 40
0.0666551923316364
 50
245.96579124804981
 51
259.53451543120281
  0
ARC
  5
3E99
  8
0
 10
-52.967947828959808
 20
25.098127696958571
 30
0.0
 40
0.0666551923316276
 50
100.46548456877269
 51
114.034208751926
  0
ARC
  5
3E9A
  8
0
 10
-52.980383690455923
 20
25.126015202696081
 30
0.0
 40
0.0361205623658225
 50
114.0348060480988
 51
137.11337162159529
  0
ARC
  5
3E9B
  8
0
 10
-53.098925526425852
 20
25.143236811096831
 30
0.0
 40
0.0108147630966103
 50
137.11156017553219
 51
179.99874778657201
  0
ARC
  5
3E9C
  8
0
 10
-53.080383690455932
 20
25.12601520269601
 30
0.0
 40
0.0361205623658808
 50
114.03480604803281
 51
137.11337162152901
  0
ARC
  5
3E9D
  8
0
 10
-53.067947828959802
 20
25.098127696958571
 30
0.0
 40
0.0666551923316276
 50
100.46548456877269
 51
114.034208751926
  0
ARC
  5
3E9E
  8
0
 10
-53.059737633267339
 20
25.053694512921009
 30
0.0
 40
0.1118405345666876
 50
90.001360795187736
 51
100.4668322073464
  0
ARC
  5
3E9F
  8
0
 10
-53.059742945772449
 20
25.05369451292086
 30
0.0
 40
0.1118405345668429
 50
79.533167792661033
 51
89.998639204819597
  0
ARC
  5
3EA0
  8
0
 10
-53.051532750079971
 20
25.098127696958571
 30
0.0
 40
0.0666551923316276
 50
65.965791248073927
 51
79.53451543122722
  0
ARC
  5
3EA1
  8
0
 10
-53.039096888583863
 20
25.126015202696081
 30
0.0
 40
0.0361205623658225
 50
42.886628378404623
 51
65.965193951901199
  0
ARC
  5
3EA2
  8
0
 10
-53.020555052613929
 20
25.143236811096791
 30
0.0
 40
0.0108147630966249
 50
0.0012522136207714
 51
42.888439824660317
  0
ARC
  5
3EA3
  8
0
 10
-52.998926799423558
 20
25.143237783815511
 30
0.0
 40
0.0108134901213956
 50
180.0039016342831
 51
222.8910892453228
  0
ARC
  5
3EA4
  8
0
 10
-52.998925526425843
 20
25.143236811096791
 30
0.0
 40
0.0108147630966249
 50
137.1115601753396
 51
179.99874778637911
  0
LINE
  5
3EA5
  8
0
 10
-52.769740289519888
 20
24.329733626444369
 30
0.0
 11
-52.769740289519888
 21
24.079733626444369
 31
0.0
  0
POLYLINE
  5
3EA6
  8
0
 66
     1
 10
0.0
 20
0.0
 30
0.0
 70
     1
  0
VERTEX
  5
4275
  8
0
 10
-46.628724882185253
 20
8.8844398469513788
 30
0.0
  0
VERTEX
  5
4276
  8
0
 10
-51.616093525266308
 20
9.2396215159771895
 30
0.0
  0
VERTEX
  5
4277
  8
0
 10
-51.591962042697787
 20
8.3952793431955186
 30
0.0
 42
0.4058694351604573
  0
VERTEX
  5
4278
  8
0
 10
-51.576968165163343
 20
8.3807078714699887
 30
0.0
  0
VERTEX
  5
4279
  8
0
 10
-46.781005021111021
 20
8.3807078714699852
 30
0.0
 42
0.393520787281382
  0
VERTEX
  5
427A
  8
0
 10
-46.656329119121779
 20
8.4968283294678457
 30
0.0
  0
SEQEND
  5
427B
  8
0
  0
POLYLINE
  5
3EA7
  8
0
 66
     1
 10
0.0
 20
0.0
 30
0.0
 70
     1
  0
VERTEX
  5
427C
  8
0
 10
-46.66527695996443
 20
9.5753021432103367
 30
0.0
  0
VERTEX
  5
427D
  8
0
 10
-46.62552824716402
 20
8.9293261647391073
 30
0.0
  0
VERTEX
  5
427E
  8
0
 10
-51.612896890245068
 20
9.2845078337649181
 30
0.0
  0
VERTEX
  5
427F
  8
0
 10
-51.482005653653893
 20
9.9183314757307066
 30
0.0
 42
-0.3759019639771884
  0
VERTEX
  5
4280
  8
0
 10
-51.350709191445098
 20
10.01773531247062
 30
0.0
  0
VERTEX
  5
4281
  8
0
 10
-46.781161445256238
 20
9.6923092789577172
 30
0.0
 42
-0.3759019639771886
  0
SEQEND
  5
4282
  8
0
  0
POLYLINE
  5
3EA8
  8
0
 66
     1
 10
0.0
 20
0.0
 30
0.0
  0
VERTEX
  5
4283
  8
0
 10
-47.145461393240488
 20
8.3835277376308905
 30
0.0
  0
VERTEX
  5
4284
  8
0
 10
-47.088825292821411
 20
8.7827968052019951
 30
0.0
 42
-0.3939104756149426
  0
VERTEX
  5
4285
  8
0
 10
-47.055665135871493
 20
8.8095789985079023
 30
0.0
  0
VERTEX
  5
4286
  8
0
 10
-46.636183697234777
 20
8.7797051054466682
 30
0.0
  0
SEQEND
  5
4287
  8
0
  0
TEXT
  5
3EA9
  8
0
 10
-50.334599464468461
 20
7.6511276190201647
 30
0.0
 40
0.25
  1
SIDE VIEW,
 51
10.0
  7
2
 72
     1
 11
-49.296394984699681
 21
7.6511276190201647
 31
0.0
  0
POLYLINE
  5
3EAA
  8
0
 66
     1
 10
0.0
 20
0.0
 30
0.0
  0
VERTEX
  5
4288
  8
0
 10
-46.670414564951741
 20
8.9325227997603438
 30
0.0
  0
VERTEX
  5
4289
  8
0
 10
-51.572499204236117
 20
9.2816308622458106
 30
0.0
  0
SEQEND
  5
428A
  8
0
  0
POLYLINE
  5
3EAB
  8
0
 66
     1
 10
0.0
 20
0.0
 30
0.0
 70
     1
  0
VERTEX
  5
428B
  8
0
 10
-47.351966739847867
 20
8.3806163692680666
 30
0.0
  0
VERTEX
  5
428C
  8
0
 10
-47.352005231135053
 20
8.3506163939610634
 30
0.0
 42
-0.4142135623730951
  0
VERTEX
  5
428D
  8
0
 10
-47.382043697729223
 20
8.320654909941231
 30
0.0
  0
VERTEX
  5
428E
  8
0
 10
-47.822043335565269
 20
8.3212194488196971
 30
0.0
 42
-0.4142135623730951
  0
VERTEX
  5
428F
  8
0
 10
-47.852004819585098
 20
8.3512579154138713
 30
0.0
  0
VERTEX
  5
4290
  8
0
 10
-47.851966916595451
 20
8.3807993736718984
 30
0.0
  0
SEQEND
  5
4291
  8
0
  0
POLYLINE
  5
3EAC
  8
0
 66
     1
 10
0.0
 20
0.0
 30
0.0
 70
     1
  0
VERTEX
  5
4292
  8
0
 10
-46.776536365633334
 20
8.7716796424445818
 30
0.0
  0
VERTEX
  5
4293
  8
0
 10
-46.775259464268267
 20
8.7896095593964567
 30
0.0
  0
VERTEX
  5
4294
  8
0
 10
-47.03574374365401
 20
8.8081602717516692
 30
0.0
  0
VERTEX
  5
4295
  8
0
 10
-47.037020645019084
 20
8.7902303547997942
 30
0.0
 42
0.2633159308165227
  0
VERTEX
  5
4296
  8
0
 10
-47.027580115360699
 20
8.7703759728078285
 30
0.0
 42
0.2772482031983587
  0
VERTEX
  5
4297
  8
0
 10
-46.788695257427257
 20
8.7533634901505533
 30
0.0
 42
0.2633159308165216
  0
SEQEND
  5
4298
  8
0
  0
LINE
  5
3EAD
  8
0
 10
-46.673611199972967
 20
8.8876364819726117
 30
0.0
 11
-46.670414564951741
 21
8.9325227997603438
 31
0.0
  0
LINE
  5
3EAE
  8
0
 10
-51.987011572665963
 20
9.0619363279852099
 30
0.0
 11
-51.811237949589731
 21
9.066958155155719
 31
0.0
  0
LINE
  5
3EAF
  8
0
 10
-51.973303634912853
 20
8.5821321049498511
 30
0.0
 11
-51.797530011836599
 21
8.5871539321203745
 31
0.0
  0
LINE
  5
3EB0
  8
0
 10
-51.934895249945221
 20
8.5832294269930003
 30
0.0
 11
-51.948603187698339
 21
9.0630336500283555
 31
0.0
  0
POLYLINE
  5
3EB1
  8
0
 66
     1
 10
0.0
 20
0.0
 30
0.0
 70
     1
  0
VERTEX
  5
4299
  8
0
 10
-50.575109272595078
 20
8.3806163692680649
 30
0.0
  0
VERTEX
  5
429A
  8
0
 10
-50.575147763882249
 20
8.3506163939610634
 30
0.0
 42
-0.4142135623730951
  0
VERTEX
  5
429B
  8
0
 10
-50.605186230476413
 20
8.320654909941231
 30
0.0
  0
VERTEX
  5
429C
  8
0
 10
-51.045185868312473
 20
8.3212194488196989
 30
0.0
 42
-0.4142135623730951
  0
VERTEX
  5
429D
  8
0
 10
-51.075147352332301
 20
8.3512579154138695
 30
0.0
  0
VERTEX
  5
429E
  8
0
 10
-51.075109449342662
 20
8.3807993736718966
 30
0.0
  0
SEQEND
  5
429F
  8
0
  0
POLYLINE
  5
3EB2
  8
0
 66
     1
 10
0.0
 20
0.0
 30
0.0
 70
     1
  0
VERTEX
  5
42A0
  8
0
 10
-51.594160500344543
 20
8.4720709430562948
 30
0.0
  0
VERTEX
  5
42A1
  8
0
 10
-51.794078926609259
 20
8.4663593023258361
 30
0.0
  0
VERTEX
  5
42A2
  8
0
 10
-51.814689034817057
 20
9.1877527849502645
 30
0.0
  0
VERTEX
  5
42A3
  8
0
 10
-51.614770608552341
 20
9.1934644256807267
 30
0.0
  0
SEQEND
  5
42A4
  8
0
  0
POLYLINE
  5
3EB3
  8
0
 66
     1
 10
0.0
 20
0.0
 30
0.0
 70
     1
  0
VERTEX
  5
42A5
  8
0
 10
-51.225269195261632
 20
9.0885016912156171
 30
0.0
  0
VERTEX
  5
42A6
  8
0
 10
-51.223992293896558
 20
9.1064316081674814
 30
0.0
  0
VERTEX
  5
42A7
  8
0
 10
-51.484476573282301
 20
9.1249823205226956
 30
0.0
  0
VERTEX
  5
42A8
  8
0
 10
-51.485753474647368
 20
9.1070524035708313
 30
0.0
 42
0.2633159308165227
  0
VERTEX
  5
42A9
  8
0
 10
-51.47631294498899
 20
9.0871980215788497
 30
0.0
 42
0.2772482031983587
  0
VERTEX
  5
42AA
  8
0
 10
-51.237428087055541
 20
9.0701855389215709
 30
0.0
 42
0.2633159308165216
  0
SEQEND
  5
42AB
  8
0
  0
POLYLINE
  5
3EB4
  8
0
 66
     1
 10
0.0
 20
0.0
 30
0.0
  0
VERTEX
  5
42AC
  8
0
 10
-51.190080449267583
 20
8.3807345740012131
 30
0.0
  0
VERTEX
  5
42AD
  8
0
 10
-51.191372416934897
 20
9.0727793970810762
 30
0.0
 42
0.4142135623730951
  0
VERTEX
  5
42AE
  8
0
 10
-51.220323585522742
 20
9.1061703365317417
 30
0.0
  0
VERTEX
  5
42AF
  8
0
 10
-51.613078866165367
 20
9.1341408929675243
 30
0.0
  0
SEQEND
  5
42B0
  8
0
  0
LINE
  5
3EB5
  8
0
 10
-51.839671347430887
 20
8.5859499602138651
 30
0.0
 11
-51.853379285184019
 21
9.0657541832492097
 31
0.0
  0
LINE
  5
3EB6
  8
0
 10
-51.889472470308533
 20
8.6612149166946573
 30
0.0
 11
-51.8988020648207
 21
8.9877686935475634
 31
0.0
  0
LINE
  5
3EB7
  8
0
 10
-51.799231453661207
 20
8.6467076729819343
 30
0.0
 11
-51.599313027396477
 21
8.6524193137124108
 31
0.0
  0
LINE
  5
3EB8
  8
0
 10
-51.809536507765117
 20
9.0074044142941432
 30
0.0
 11
-51.609618081500379
 21
9.0131160550246143
 31
0.0
  0
POLYLINE
  5
3EB9
  8
0
 66
     1
 10
0.0
 20
0.0
 30
0.0
  0
VERTEX
  5
42B1
  8
0
 10
-51.575695839257342
 20
9.2367445444580785
 30
0.0
  0
VERTEX
  5
42B2
  8
0
 10
-51.572499204236117
 20
9.2816308622458106
 30
0.0
  0
SEQEND
  5
42B3
  8
0
  0
ARC
  5
3EBA
  8
0
 10
-53.580558857174402
 20
8.7930850625802446
 30
0.0
 40
0.0108147630966249
 50
231.0380472117443
 51
273.92523482278392
  0
ARC
  5
3EBB
  8
0
 10
-53.579077742949259
 20
8.7715063067362831
 30
0.0
 40
0.0108147630966249
 50
93.927739250025539
 51
136.81492686106489
  0
ARC
  5
3EBC
  8
0
 10
-53.557799702667779
 20
8.7129973783260226
 30
0.0
 40
0.0361205623658808
 50
207.96129308443739
 51
231.03985865793339
  0
ARC
  5
3EBD
  8
0
 10
-53.585926450440169
 20
8.8712727831089282
 30
0.0
 40
0.0108134901213959
 50
51.035397791081863
 51
93.922585402121385
  0
POLYLINE
  5
3EBE
  8
0
 66
     1
 10
0.0
 20
0.0
 30
0.0
  0
VERTEX
  5
42B4
  8
0
 10
-52.167369604972158
 20
8.5165631859467013
 30
0.0
  0
VERTEX
  5
42B5
  8
0
 10
-52.251475939464342
 20
8.514160280047772
 30
0.0
 42
-0.4142135623730951
  0
VERTEX
  5
42B6
  8
0
 10
-52.374853979661438
 20
8.6306843513683429
 30
0.0
  0
VERTEX
  5
42B7
  8
0
 10
-52.3851349329763
 20
8.9905375186448513
 30
0.0
 42
-0.4142135623730951
  0
VERTEX
  5
42B8
  8
0
 10
-52.268610861655723
 20
9.113915558841974
 30
0.0
  0
VERTEX
  5
42B9
  8
0
 10
-52.184504527163661
 20
9.1163184647408908
 30
0.0
  0
SEQEND
  5
42BA
  8
0
  0
LINE
  5
3EBF
  8
0
 10
-52.18780482063206
 20
9.0868451317212156
 30
0.0
 11
-52.17234723947621
 21
8.5458000197529032
 31
0.0
  0
POLYLINE
  5
3EC0
  8
0
 66
     1
 10
0.0
 20
0.0
 30
0.0
 70
     1
  0
VERTEX
  5
42BB
  8
0
 10
-52.140251207615613
 20
9.1784515204235415
 30
0.0
  0
VERTEX
  5
42BC
  8
0
 10
-51.99046265789331
 20
9.1827309577797394
 30
0.0
  0
VERTEX
  5
42BD
  8
0
 10
-51.969852549685498
 20
8.4613374751553092
 30
0.0
  0
VERTEX
  5
42BE
  8
0
 10
-52.119641099407808
 20
8.4570580377990971
 30
0.0
 42
-0.5559226996068382
  0
VERTEX
  5
42BF
  8
0
 10
-52.124793626459763
 20
8.6374064084552131
 30
0.0
 42
-0.2779613498034132
  0
VERTEX
  5
42C0
  8
0
 10
-52.135098680563658
 20
8.9981031497674255
 30
0.0
 42
-0.5559226996068382
  0
SEQEND
  5
42C1
  8
0
  0
LINE
  5
3EC1
  8
0
 10
-52.124793626459763
 20
8.6374064084552131
 30
0.0
 11
-51.97500507673746
 21
8.6416858458114234
 31
0.0
  0
LINE
  5
3EC2
  8
0
 10
-52.135098680563658
 20
8.9981031497674255
 30
0.0
 11
-51.985310130841349
 21
9.0023825871236234
 31
0.0
  0
ARC
  5
3EC3
  8
0
 10
-53.573711207289449
 20
8.6933197896088661
 30
0.0
 40
0.0108147630966103
 50
231.03804721193691
 51
273.92523482297651
  0
ARC
  5
3EC4
  8
0
 10
-53.580559740439469
 20
8.7930837259622301
 30
0.0
 40
0.0108134901213956
 50
273.93038867068748
 51
316.81757628172738
  0
ARC
  5
3EC5
  8
0
 10
-53.627684801556128
 20
8.8209010319684804
 30
0.0
 40
0.0666551923316364
 50
339.89227828445439
 51
353.46100246760727
  0
ARC
  5
3EC6
  8
0
 10
-53.599011191076762
 20
8.8104039995551062
 30
0.0
 40
0.0361205623658326
 50
316.81311541478709
 51
339.89168098828378
  0
ARC
  5
3EC7
  8
0
 10
-53.601838366717679
 20
8.8515938901438602
 30
0.0
 40
0.0361205623658325
 50
27.961293084525149
 51
51.039858658022268
  0
ARC
  5
3EC8
  8
0
 10
-53.62880884868617
 20
8.8372775802213521
 30
0.0
 40
0.0666551923316363
 50
14.391971605201711
 51
27.960695788354801
  0
ARC
  5
3EC9
  8
0
 10
-53.672575530575372
 20
8.8260440272017142
 30
0.0
 40
0.1118405345668359
 50
3.9278478315455461
 51
14.39331924370383
  0
ARC
  5
3ECA
  8
0
 10
-53.672575894356967
 20
8.8260493272368006
 30
0.0
 40
0.1118405345666805
 50
353.45965482909787
 51
3.925126241256407
  0
ARC
  5
3ECB
  8
0
 10
-53.487062175028399
 20
8.7385419412330325
 30
0.0
 40
0.1118405345668429
 50
173.45965482906561
 51
183.92512624122421
  0
ARC
  5
3ECC
  8
0
 10
-53.487062538810299
 20
8.7385472412682486
 30
0.0
 40
0.1118405345666876
 50
183.92784783159229
 51
194.39331924375111
  0
ARC
  5
3ECD
  8
0
 10
-53.530829220699339
 20
8.7273136882485272
 30
0.0
 40
0.0666551923316276
 50
194.3919716051775
 51
207.96069578833061
  0
ARC
  5
3ECE
  8
0
 10
-53.56062687830876
 20
8.7541872689148281
 30
0.0
 40
0.0361205623658225
 50
136.8131154148092
 51
159.89168098830581
  0
ARC
  5
3ECF
  8
0
 10
-53.531953267829373
 20
8.743690236501461
 30
0.0
 40
0.0666551923316276
 50
159.89227828447849
 51
173.46100246763169
  0
ARC
  5
3ED0
  8
0
 10
-53.564647352552853
 20
8.8127626512973976
 30
0.0
 40
0.0361205623658225
 50
207.9612930845033
 51
231.03985865799979
  0
ARC
  5
3ED1
  8
0
 10
-53.537676870584349
 20
8.8270789612199003
 30
0.0
 40
0.0666551923316276
 50
194.3919716051775
 51
207.96069578833061
  0
ARC
  5
3ED2
  8
0
 10
-53.493909824913402
 20
8.8383072142044021
 30
0.0
 40
0.111840534566843
 50
173.45965482906561
 51
183.92512624122421
  0
ARC
  5
3ED3
  8
0
 10
-53.538800917714383
 20
8.8434555094728182
 30
0.0
 40
0.0666551923316276
 50
159.89227828447849
 51
173.46100246763169
  0
ARC
  5
3ED4
  8
0
 10
-53.56747452819377
 20
8.8539525418861924
 30
0.0
 40
0.0361205623658225
 50
136.8131154148092
 51
159.89168098830581
  0
ARC
  5
3ED5
  8
0
 10
-53.58592539283427
 20
8.8712715797076491
 30
0.0
 40
0.0108147630966247
 50
93.927739250025539
 51
136.81492686106489
  0
ARC
  5
3ED6
  8
0
 10
-53.49391018869531
 20
8.8383125142396146
 30
0.0
 40
0.1118405345666875
 50
183.92784783159229
 51
194.39331924375111
  0
POLYLINE
  5
3ED7
  8
0
 66
     1
 10
0.0
 20
0.0
 30
0.0
  0
VERTEX
  5
42C2
  8
0
 10
-52.382746036978787
 20
8.9069215576858625
 30
0.0
 42
-0.0285556765271921
  0
VERTEX
  5
42C3
  8
0
 10
-53.084938954742121
 20
8.9183462726364962
 30
0.0
 42
0.0729085721512716
  0
VERTEX
  5
42C4
  8
0
 10
-53.586666185715288
 20
8.8820609414470475
 30
0.0
 42
-1.2454492437222231
  0
SEQEND
  5
42C5
  8
0
  0
POLYLINE
  5
3ED8
  8
0
 66
     1
 10
0.0
 20
0.0
 30
0.0
  0
VERTEX
  5
42C6
  8
0
 10
-52.377138975726481
 20
8.7111884704438172
 30
0.0
 42
-0.0285556765271921
  0
VERTEX
  5
42C7
  8
0
 10
-53.079331893489808
 20
8.7226131853944544
 30
0.0
 42
0.0830327843562912
  0
VERTEX
  5
42C8
  8
0
 10
-53.572970885981398
 20
8.6825303955018427
 30
0.0
 42
-1.2454492437222231
  0
SEQEND
  5
42C9
  8
0
  0
LINE
  5
3ED9
  8
0
 10
-46.159395440804218
 20
25.505228816867259
 30
0.0
 11
-48.825966791983639
 21
25.505228816867259
 31
0.0
  0
LINE
  5
3EDA
  8
0
 10
-52.759740289519883
 20
25.505228816867259
 30
0.0
 11
-49.967085234227859
 21
25.505228816867259
 31
0.0
  0
INSERT
  5
3EDB
  8
0
  2
DA
 10
-53.00974028951989
 20
25.505228816867259
 30
0.0
 41
0.25
 42
0.25
 43
0.25
 50
180.0
  0
TEXT
  5
3EDC
  8
0
  6
BYBLOCK
 10
-49.842845876660377
 20
25.452236747653131
 30
0.0
 40
0.15
  1
7.10 [180]
  7
1
 72
     4
 11
-49.376677888196063
 21
25.505228816867259
 31
0.0
  0
INSERT
  5
3EDD
  8
0
  2
DA
 10
-45.909395440804232
 20
25.505228816867259
 30
0.0
 41
0.25
 42
0.25
 43
0.25
  0
TEXT
  5
3EDE
  8
0
 10
-51.92681405984419
 20
7.2619388880812394
 30
0.0
 40
0.25
  1
Free-Standing & Pedestal-Mount
 51
10.0
  7
2
 72
     1
 11
-49.296394984699681
 21
7.2619388880812394
 31
0.0
  0
TEXT
  5
3EDF
  8
0
 10
-43.078998008031803
 20
7.2619388880812394
 30
0.0
 40
0.25
  1
Panel-Mount
 51
10.0
  7
2
 72
     1
 11
-42.041154799939306
 21
7.2619388880812394
 31
0.0
  0
TEXT
  5
3EE0
  8
0
 10
-43.0793592797081
 20
7.6511276190201647
 30
0.0
 40
0.25
  1
SIDE VIEW,
 51
10.0
  7
2
 72
     1
 11
-42.041154799939306
 21
7.6511276190201647
 31
0.0
  0
TEXT
  5
3EE1
  8
0
 10
-54.705656097228172
 20
9.1845483411160558
 30
0.0
 40
0.15
  1
1.70 [43]
  7
1
 72
     1
 11
-54.295724590378853
 21
9.1845483411160558
 31
0.0
  0
INSERT
  5
3EE2
  8
0
  2
DA
 10
-54.30821831854211
 20
10.01805109639359
 30
0.0
 41
-0.25
 42
0.25
 43
0.25
 50
270.0
  0
INSERT
  5
3EE3
  8
0
  2
DA
 10
-54.30821831854211
 20
8.3212194488196971
 30
0.0
 41
-0.25
 42
0.25
 43
0.25
 50
90.0
  0
POLYLINE
  5
3EE4
  8
0
 66
     1
 10
0.0
 20
0.0
 30
0.0
 70
     1
  0
VERTEX
  5
42CA
  8
0
 10
-42.215193551857297
 20
14.3649101318821
 30
0.0
  0
VERTEX
  5
42CB
  8
0
 10
-42.215193551857297
 20
8.3745327539074665
 30
0.0
  0
VERTEX
  5
42CC
  8
0
 10
-41.965193551857297
 20
8.5267750951577685
 30
0.0
  0
VERTEX
  5
42CD
  8
0
 10
-41.965193551857297
 20
14.475631857199961
 30
0.0
  0
SEQEND
  5
42CE
  8
0
  0
INSERT
  5
3EE5
  8
0
  6
CONTINUOUS
  2
*X2
 10
0.0
 20
0.0
 30
0.0
1001
ACAD
1000
HATCH
1002
{
1070
    19
1000
NET
1040
1.5
1040
0.7853981633974483
1000
R14_HATCH_DATA
1000
3EE5
1011
1.0
1021
2.3087113041759781E+113
1031
0.0
1021
0.0
1031
0.0
1011
0.0
1021
2.3087113041759781E+113
1031
0.0
1021
1.0
1031
0.0
1011
0.0
1021
2.3087113041759781E+113
1031
0.0
1021
0.0
1031
1.0
1040
0.0
1010
0.0
1020
0.0
1030
1.0
1000
NET
1070
     0
1070
     0
1071
        1
1071
        1
1071
        4
1070
     1
1040
-42.215193551857297
1040
14.3649101318821
1040
-42.215193551857297
1040
8.3745327539074665
1070
     1
1040
-42.215193551857297
1040
8.3745327539074665
1040
-41.965193551857297
1040
8.5267750951577685
1070
     1
1040
-41.965193551857297
1040
8.5267750951577685
1040
-41.965193551857297
1040
14.475631857199961
1070
     1
1040
-41.965193551857297
1040
14.475631857199961
1040
-42.215193551857297
1040
14.3649101318821
1071
        0
1070
     0
1070
     1
1040
0.7853981633974483
1040
1.5
1070
     0
1070
     2
1040
0.7853981633974483
1040
-57.199833804550842
1040
5.4591423897014604
1040
-0.1325825214724776
1040
0.1325825214724777
1070
     0
1040
2.3561944901923439
1040
-57.199833804550842
1040
5.4591423897014604
1040
-0.1325825214724777
1040
-0.1325825214724776
1070
     0
1071
        1
1040
-38.40007505390286
1040
5.1222539177492834
1040
0.0
1002
}
  0
LINE
  5
3EE6
  8
0
 10
-51.538675604262259
 20
10.01805109639359
 30
0.0
 11
-54.469396551883669
 21
10.01805109639359
 31
0.0
  0
LINE
  5
3EE7
  8
0
 10
-51.152638065006208
 20
8.3212194488196989
 30
0.0
 11
-54.469396551883669
 21
8.3212194488196971
 31
0.0
  0
LINE
  5
3EE8
  8
0
 10
-54.30821831854211
 20
9.4026186406211281
 30
0.0
 11
-54.30821831854211
 21
9.7680510963935934
 31
0.0
  0
TEXT
  5
3EE9
  8
0
 10
-54.603186738900853
 20
8.9697273775857251
 30
0.0
 40
0.15
  1
overall
  7
1
 72
     1
 11
-54.295724590378853
 21
8.9697273775857251
 31
0.0
  0
LINE
  5
3EEA
  8
0
 10
-54.30821831854211
 20
8.5087194488196971
 30
0.0
 11
-54.30821831854211
 21
8.8741519045921642
 31
0.0
  0
TEXT
  5
3EEB
  8
0
 10
-52.501534497234928
 20
24.53536763831049
 30
0.0
 40
0.15
  1
Waterproof strain relief
  7
1
  0
TEXT
  5
3EEC
  8
0
 10
-52.501534497234928
 20
24.28068126484257
 30
0.0
 40
0.15
  1
for operating cable entry
  7
1
  0
TEXT
  5
3EED
  8
0
 10
-41.860944801520169
 20
14.50291223105933
 30
0.0
 40
0.15
  1
(Panel)
 50
270.0
  7
1
  0
POLYLINE
  5
3EEE
  8
0
 66
     1
 10
0.0
 20
0.0
 30
0.0
  0
VERTEX
  5
4301
  8
0
 10
-42.642836903119957
 20
14.37902100360639
 30
0.0
 42
-0.118091227177396
  0
VERTEX
  5
4302
  8
0
 10
-42.584842358323897
 20
15.06071353105829
 30
0.0
 42
0.1877095917201287
  0
VERTEX
  5
4303
  8
0
 10
-42.660240870753363
 20
15.68946012620067
 30
0.0
 42
-1.461601074884735
  0
SEQEND
  5
4304
  8
0
  0
POLYLINE
  5
3EEF
  8
0
 66
     1
 10
0.0
 20
0.0
 30
0.0
  0
VERTEX
  5
4305
  8
0
 10
-42.842141462232149
 20
14.362091581670329
 30
0.0
 42
-0.118091227177396
  0
VERTEX
  5
4306
  8
0
 10
-42.784146917436082
 20
15.04378410912223
 30
0.0
 42
0.1925244134324761
  0
VERTEX
  5
4307
  8
0
 10
-42.848372229462143
 20
15.62158824785347
 30
0.0
 42
-1.461601074884735
  0
SEQEND
  5
4308
  8
0
  0
ARC
  5
3EF0
  8
0
 10
-42.714861853804003
 20
15.71771081986055
 30
0.0
 40
0.0666551923316363
 50
300.30333413706762
 51
313.87205832022062
  0
ARC
  5
3EF1
  8
0
 10
-42.684244950951651
 20
15.63284504520794
 30
0.0
 40
0.0666551923316276
 50
85.803640816344284
 51
99.372364999497762
  0
ARC
  5
3EF2
  8
0
 10
-42.737658651222347
 20
15.75672279211652
 30
0.0
 40
0.1118405345666805
 50
279.37101736096389
 51
289.83648877312203
  0
ARC
  5
3EF3
  8
0
 10
-42.676884111754198
 20
15.588264264616489
 30
0.0
 40
0.1118405345666875
 50
109.83921036345821
 51
120.3046817756168
  0
ARC
  5
3EF4
  8
0
 10
-42.737663648466302
 20
15.756720989268221
 30
0.0
 40
0.1118405345668359
 50
289.83921036341138
 51
300.30468177556958
  0
ARC
  5
3EF5
  8
0
 10
-42.676889108998161
 20
15.588262461767849
 30
0.0
 40
0.111840534566843
 50
99.371017360931361
 51
109.83648877309
  0
ARC
  5
3EF6
  8
0
 10
-42.732536799884592
 20
15.68168741055659
 30
0.0
 40
0.0361205623658326
 50
242.72447794665291
 51
265.8030435201498
  0
ARC
  5
3EF7
  8
0
 10
-42.730302809268821
 20
15.71214020867661
 30
0.0
 40
0.0666551923316364
 50
265.80364081632013
 51
279.37236499947289
  0
ARC
  5
3EF8
  8
0
 10
-42.699685906416519
 20
15.627274434023979
 30
0.0
 40
0.0666551923316276
 50
120.30333413704339
 51
133.8720583201964
  0
ARC
  5
3EF9
  8
0
 10
-42.720847671000527
 20
15.64928677935794
 30
0.0
 40
0.0361205623658225
 50
133.87265561636929
 51
156.95122118986581
  0
ARC
  5
3EFA
  8
0
 10
-42.770954788352562
 20
15.55432652259424
 30
0.0
 40
0.1118405345668429
 50
99.371017360931361
 51
109.83648877309
  0
ARC
  5
3EFB
  8
0
 10
-42.778310630306038
 20
15.598909106034339
 30
0.0
 40
0.0666551923316276
 50
85.803640816344284
 51
99.372364999497762
  0
ARC
  5
3EFC
  8
0
 10
-42.776076639690267
 20
15.62936190415436
 30
0.0
 40
0.0361205623658225
 50
62.724477946674988
 51
85.803043520171855
  0
ARC
  5
3EFD
  8
0
 10
-42.764479450271971
 20
15.651853873268671
 30
0.0
 40
0.0108147630966249
 50
19.83910178189122
 51
62.72628939293066
  0
ARC
  5
3EFE
  8
0
 10
-42.744135017077177
 20
15.659194539110141
 30
0.0
 40
0.0108134901213956
 50
199.8417512025535
 51
242.7289388135934
  0
ARC
  5
3EFF
  8
0
 10
-42.744133489522
 20
15.6591940561194
 30
0.0
 40
0.0108147630966249
 50
156.9494097436102
 51
199.8365973546496
  0
ARC
  5
3F00
  8
0
 10
-42.838199168876429
 20
15.62525811694583
 30
0.0
 40
0.0108147630966103
 50
156.9494097438027
 51
199.8365973548425
  0
ARC
  5
3F01
  8
0
 10
-42.814913350354907
 20
15.61535084018427
 30
0.0
 40
0.0361205623658808
 50
133.87265561630329
 51
156.95122118979941
  0
ARC
  5
3F02
  8
0
 10
-42.793751585770913
 20
15.59333849485038
 30
0.0
 40
0.0666551923316276
 50
120.30333413704339
 51
133.8720583201964
  0
ARC
  5
3F03
  8
0
 10
-42.770949791108592
 20
15.55432832544289
 30
0.0
 40
0.1118405345666876
 50
109.83921036345821
 51
120.3046817756168
  0
ARC
  5
3F04
  8
0
 10
-42.693700089219988
 20
15.695698474526599
 30
0.0
 40
0.0361205623658325
 50
313.87265561639123
 51
336.95122118988792
  0
ARC
  5
3F05
  8
0
 10
-42.670412903564852
 20
15.68579115944048
 30
0.0
 40
0.0108134901213959
 50
336.94676032294751
 51
19.833947933987361
  0
ARC
  5
3F06
  8
0
 10
-42.670413770917563
 20
15.68578981244227
 30
0.0
 40
0.0108147630966247
 50
19.83910178189122
 51
62.72628939293066
  0
ARC
  5
3F07
  8
0
 10
-42.68201096033588
 20
15.663297843327969
 30
0.0
 40
0.0361205623658225
 50
62.724477946674988
 51
85.803043520171855
  0
TEXT
  5
4077
  8
0
 10
-48.082463389387136
 20
21.323968756324891
 30
0.0
 40
0.16
  1
2
  7
3
 72
     4
 11
-48.019408399570437
 21
21.401742008191832
 31
0.0
  0
TEXT
  5
4078
  8
0
 10
-48.082463389387136
 20
20.778422252591021
 30
0.0
 40
0.16
  1
5
  7
3
 72
     4
 11
-48.019408399570437
 21
20.851742008191831
 31
0.0
  0
TEXT
  5
4079
  8
0
 10
-48.082463389387136
 20
20.226086882597802
 30
0.0
 40
0.16
  1
8
  7
3
 72
     4
 11
-48.019408399570437
 21
20.30174200819183
 31
0.0
  0
TEXT
  5
407A
  8
0
 10
-48.082463389387136
 20
19.676086882597801
 30
0.0
 40
0.16
  1
0
  7
3
 72
     4
 11
-48.019408399570437
 21
19.75174200819183
 31
0.0
  0
POLYLINE
  5
407B
  8
0
 66
     1
 10
0.0
 20
0.0
 30
0.0
 70
     1
  0
VERTEX
  5
4309
  8
0
 10
-48.29440839957045
 20
21.151742008191832
 30
0.0
  0
VERTEX
  5
430A
  8
0
 10
-47.744408399570439
 20
21.151742008191832
 30
0.0
 42
0.4142135623730951
  0
VERTEX
  5
430B
  8
0
 10
-47.719408399570447
 20
21.17674200819183
 30
0.0
  0
VERTEX
  5
430C
  8
0
 10
-47.719408399570447
 20
21.62674200819183
 30
0.0
 42
0.4142135623730982
  0
VERTEX
  5
430D
  8
0
 10
-47.744408399570439
 20
21.651742008191832
 30
0.0
  0
VERTEX
  5
430E
  8
0
 10
-47.913506700132949
 20
21.651742008191821
 30
0.0
 42
0.1164338214658502
  0
VERTEX
  5
430F
  8
0
 10
-47.924687040020451
 20
21.64910268796682
 30
0.0
  0
VERTEX
  5
4310
  8
0
 10
-48.305588739457939
 20
21.45865183824807
 30
0.0
 42
0.2840790438404128
  0
VERTEX
  5
4311
  8
0
 10
-48.319408399570449
 20
21.436291158473079
 30
0.0
  0
VERTEX
  5
4312
  8
0
 10
-48.319408399570449
 20
21.17674200819183
 30
0.0
 42
0.4142135623730961
  0
SEQEND
  5
4313
  8
0
  0
POLYLINE
  5
407C
  8
0
 66
     1
 10
0.0
 20
0.0
 30
0.0
 70
     1
  0
VERTEX
  5
4314
  8
0
 10
-48.29440839957045
 20
20.601742008191831
 30
0.0
  0
VERTEX
  5
4315
  8
0
 10
-47.744408399570439
 20
20.601742008191831
 30
0.0
 42
0.4142135623730951
  0
VERTEX
  5
4316
  8
0
 10
-47.719408399570447
 20
20.62674200819183
 30
0.0
  0
VERTEX
  5
4317
  8
0
 10
-47.719408399570447
 20
21.076742008191822
 30
0.0
 42
0.4142135623730982
  0
VERTEX
  5
4318
  8
0
 10
-47.744408399570439
 20
21.101742008191831
 30
0.0
  0
VERTEX
  5
4319
  8
0
 10
-47.913506700132949
 20
21.10174200819182
 30
0.0
 42
0.1164338214658502
  0
VERTEX
  5
431A
  8
0
 10
-47.924687040020451
 20
21.09910268796682
 30
0.0
  0
VERTEX
  5
431B
  8
0
 10
-48.305588739457939
 20
20.90865183824808
 30
0.0
 42
0.2840790438404128
  0
VERTEX
  5
431C
  8
0
 10
-48.319408399570449
 20
20.886291158473082
 30
0.0
  0
VERTEX
  5
431D
  8
0
 10
-48.319408399570449
 20
20.62674200819183
 30
0.0
 42
0.4142135623730961
  0
SEQEND
  5
431E
  8
0
  0
POLYLINE
  5
407D
  8
0
 66
     1
 10
0.0
 20
0.0
 30
0.0
 70
     1
  0
VERTEX
  5
431F
  8
0
 10
-48.29440839957045
 20
20.05174200819183
 30
0.0
  0
VERTEX
  5
4320
  8
0
 10
-47.744408399570439
 20
20.05174200819183
 30
0.0
 42
0.4142135623730951
  0
VERTEX
  5
4321
  8
0
 10
-47.719408399570447
 20
20.076742008191829
 30
0.0
  0
VERTEX
  5
4322
  8
0
 10
-47.719408399570447
 20
20.526742008191832
 30
0.0
 42
0.4142135623730982
  0
VERTEX
  5
4323
  8
0
 10
-47.744408399570439
 20
20.55174200819183
 30
0.0
  0
VERTEX
  5
4324
  8
0
 10
-47.913506700132949
 20
20.55174200819183
 30
0.0
 42
0.1164338214658502
  0
VERTEX
  5
4325
  8
0
 10
-47.924687040020451
 20
20.54910268796683
 30
0.0
  0
VERTEX
  5
4326
  8
0
 10
-48.305588739457939
 20
20.358651838248079
 30
0.0
 42
0.2840790438404128
  0
VERTEX
  5
4327
  8
0
 10
-48.319408399570449
 20
20.336291158473081
 30
0.0
  0
VERTEX
  5
4328
  8
0
 10
-48.319408399570449
 20
20.076742008191829
 30
0.0
 42
0.4142135623730961
  0
SEQEND
  5
4329
  8
0
  0
POLYLINE
  5
407E
  8
0
 66
     1
 10
0.0
 20
0.0
 30
0.0
 70
     1
  0
VERTEX
  5
432A
  8
0
 10
-48.29440839957045
 20
19.50174200819183
 30
0.0
  0
VERTEX
  5
432B
  8
0
 10
-47.744408399570439
 20
19.50174200819183
 30
0.0
 42
0.4142135623730951
  0
VERTEX
  5
432C
  8
0
 10
-47.719408399570447
 20
19.526742008191832
 30
0.0
  0
VERTEX
  5
432D
  8
0
 10
-47.719408399570447
 20
19.976742008191831
 30
0.0
 42
0.4142135623730982
  0
VERTEX
  5
432E
  8
0
 10
-47.744408399570439
 20
20.00174200819183
 30
0.0
  0
VERTEX
  5
432F
  8
0
 10
-47.913506700132949
 20
20.00174200819183
 30
0.0
 42
0.1164338214658502
  0
VERTEX
  5
4330
  8
0
 10
-47.924687040020451
 20
19.999102687966818
 30
0.0
  0
VERTEX
  5
4331
  8
0
 10
-48.305588739457939
 20
19.808651838248078
 30
0.0
 42
0.2840790438404128
  0
VERTEX
  5
4332
  8
0
 10
-48.319408399570449
 20
19.78629115847308
 30
0.0
  0
VERTEX
  5
4333
  8
0
 10
-48.319408399570449
 20
19.526742008191832
 30
0.0
 42
0.4142135623730961
  0
SEQEND
  5
4334
  8
0
  0
TEXT
  5
4081
  8
0
 10
-49.44381437377276
 20
20.179881858836769
 30
0.0
 40
0.25
  1
U
  7
3
 72
     4
 11
-49.319408399570449
 21
20.30174200819183
 31
0.0
  0
TEXT
  5
4082
  8
0
 10
-50.072684027540582
 20
20.17674200819183
 30
0.0
 40
0.25
  1
T
  7
3
 72
     4
 11
-49.969408399570447
 21
20.30174200819183
 31
0.0
  0
TEXT
  5
4083
  8
0
 10
-50.73532829094858
 20
20.176826869020069
 30
0.0
 40
0.25
  1
S
  7
3
 72
     4
 11
-50.619408399570453
 21
20.30174200819183
 31
0.0
  0
TEXT
  5
4084
  8
0
 10
-51.384649404322658
 20
20.17674200819183
 30
0.0
 40
0.25
  1
R
  7
3
 72
     4
 11
-51.269408399570452
 21
20.30174200819183
 31
0.0
  0
TEXT
  5
4085
  8
0
 10
-52.05654349800902
 20
20.18217310119929
 30
0.0
 40
0.25
  1
Q
  7
3
 72
     4
 11
-51.91940839957045
 21
20.30174200819183
 31
0.0
  0
TEXT
  5
4086
  8
0
 10
-52.676502764811453
 20
20.17674200819183
 30
0.0
 40
0.25
  1
P
  7
3
 72
     4
 11
-52.569408399570449
 21
20.30174200819183
 31
0.0
  0
TEXT
  5
4087
  8
0
 10
-53.35654349800901
 20
20.176996590676548
 30
0.0
 40
0.25
  1
O
  7
3
 72
     4
 11
-53.21940839957044
 21
20.30174200819183
 31
0.0
  0
POLYLINE
  5
4088
  8
0
 66
     1
 10
0.0
 20
0.0
 30
0.0
 70
     1
  0
VERTEX
  5
4335
  8
0
 10
-48.944408399570449
 20
20.05174200819183
 30
0.0
  0
VERTEX
  5
4336
  8
0
 10
-48.394408399570437
 20
20.05174200819183
 30
0.0
 42
0.4142135623730951
  0
VERTEX
  5
4337
  8
0
 10
-48.369408399570439
 20
20.076742008191829
 30
0.0
  0
VERTEX
  5
4338
  8
0
 10
-48.369408399570439
 20
20.526742008191832
 30
0.0
 42
0.4142135623730982
  0
VERTEX
  5
4339
  8
0
 10
-48.394408399570437
 20
20.55174200819183
 30
0.0
  0
VERTEX
  5
433A
  8
0
 10
-48.563506700132947
 20
20.55174200819183
 30
0.0
 42
0.1164338214658502
  0
VERTEX
  5
433B
  8
0
 10
-48.57468704002045
 20
20.54910268796683
 30
0.0
  0
VERTEX
  5
433C
  8
0
 10
-48.955588739457951
 20
20.358651838248079
 30
0.0
 42
0.2840790438404128
  0
VERTEX
  5
433D
  8
0
 10
-48.969408399570447
 20
20.336291158473081
 30
0.0
  0
VERTEX
  5
433E
  8
0
 10
-48.969408399570447
 20
20.076742008191829
 30
0.0
 42
0.4142135623730961
  0
SEQEND
  5
433F
  8
0
  0
POLYLINE
  5
4089
  8
0
 66
     1
 10
0.0
 20
0.0
 30
0.0
 70
     1
  0
VERTEX
  5
4340
  8
0
 10
-49.59440839957044
 20
20.05174200819183
 30
0.0
  0
VERTEX
  5
4341
  8
0
 10
-49.044408399570429
 20
20.05174200819183
 30
0.0
 42
0.4142135623730956
  0
VERTEX
  5
4342
  8
0
 10
-49.019408399570437
 20
20.076742008191829
 30
0.0
  0
VERTEX
  5
4343
  8
0
 10
-49.019408399570437
 20
20.526742008191839
 30
0.0
 42
0.4142135623730946
  0
VERTEX
  5
4344
  8
0
 10
-49.044408399570429
 20
20.551742008191841
 30
0.0
  0
VERTEX
  5
4345
  8
0
 10
-49.594408399570433
 20
20.551742008191841
 30
0.0
 42
0.4142135623730936
  0
VERTEX
  5
4346
  8
0
 10
-49.619408399570432
 20
20.526742008191839
 30
0.0
  0
VERTEX
  5
4347
  8
0
 10
-49.619408399570432
 20
20.076742008191829
 30
0.0
 42
0.4142135623730961
  0
SEQEND
  5
4348
  8
0
  0
POLYLINE
  5
408A
  8
0
 66
     1
 10
0.0
 20
0.0
 30
0.0
 70
     1
  0
VERTEX
  5
4349
  8
0
 10
-50.244408399570439
 20
20.05174200819183
 30
0.0
  0
VERTEX
  5
434A
  8
0
 10
-49.694408399570428
 20
20.05174200819183
 30
0.0
 42
0.4142135623730956
  0
VERTEX
  5
434B
  8
0
 10
-49.669408399570429
 20
20.076742008191829
 30
0.0
  0
VERTEX
  5
434C
  8
0
 10
-49.669408399570429
 20
20.526742008191839
 30
0.0
 42
0.4142135623730946
  0
VERTEX
  5
434D
  8
0
 10
-49.694408399570428
 20
20.551742008191841
 30
0.0
  0
VERTEX
  5
434E
  8
0
 10
-50.244408399570432
 20
20.551742008191841
 30
0.0
 42
0.4142135623730936
  0
VERTEX
  5
434F
  8
0
 10
-50.269408399570437
 20
20.526742008191839
 30
0.0
  0
VERTEX
  5
4350
  8
0
 10
-50.269408399570437
 20
20.076742008191829
 30
0.0
 42
0.4142135623730961
  0
SEQEND
  5
4351
  8
0
  0
POLYLINE
  5
408B
  8
0
 66
     1
 10
0.0
 20
0.0
 30
0.0
 70
     1
  0
VERTEX
  5
4352
  8
0
 10
-50.894408399570437
 20
20.05174200819183
 30
0.0
  0
VERTEX
  5
4353
  8
0
 10
-50.34440839957044
 20
20.05174200819183
 30
0.0
 42
0.4142135623730956
  0
VERTEX
  5
4354
  8
0
 10
-50.319408399570428
 20
20.076742008191829
 30
0.0
  0
VERTEX
  5
4355
  8
0
 10
-50.319408399570428
 20
20.526742008191839
 30
0.0
 42
0.4142135623730946
  0
VERTEX
  5
4356
  8
0
 10
-50.34440839957044
 20
20.551742008191841
 30
0.0
  0
VERTEX
  5
4357
  8
0
 10
-50.894408399570437
 20
20.551742008191841
 30
0.0
 42
0.4142135623730936
  0
VERTEX
  5
4358
  8
0
 10
-50.919408399570429
 20
20.526742008191839
 30
0.0
  0
VERTEX
  5
4359
  8
0
 10
-50.919408399570443
 20
20.076742008191829
 30
0.0
 42
0.4142135623730961
  0
SEQEND
  5
435A
  8
0
  0
POLYLINE
  5
408C
  8
0
 66
     1
 10
0.0
 20
0.0
 30
0.0
 70
     1
  0
VERTEX
  5
435B
  8
0
 10
-51.544408399570443
 20
20.05174200819183
 30
0.0
  0
VERTEX
  5
435C
  8
0
 10
-50.994408399570439
 20
20.05174200819183
 30
0.0
 42
0.4142135623730956
  0
VERTEX
  5
435D
  8
0
 10
-50.96940839957044
 20
20.076742008191829
 30
0.0
  0
VERTEX
  5
435E
  8
0
 10
-50.96940839957044
 20
20.526742008191839
 30
0.0
 42
0.4142135623730946
  0
VERTEX
  5
435F
  8
0
 10
-50.994408399570439
 20
20.551742008191841
 30
0.0
  0
VERTEX
  5
4360
  8
0
 10
-51.544408399570429
 20
20.551742008191841
 30
0.0
 42
0.4142135623730936
  0
VERTEX
  5
4361
  8
0
 10
-51.569408399570442
 20
20.526742008191839
 30
0.0
  0
VERTEX
  5
4362
  8
0
 10
-51.569408399570442
 20
20.076742008191829
 30
0.0
 42
0.4142135623730961
  0
SEQEND
  5
4363
  8
0
  0
POLYLINE
  5
408D
  8
0
 66
     1
 10
0.0
 20
0.0
 30
0.0
 70
     1
  0
VERTEX
  5
4364
  8
0
 10
-52.194408399570442
 20
20.05174200819183
 30
0.0
  0
VERTEX
  5
4365
  8
0
 10
-51.644408399570452
 20
20.05174200819183
 30
0.0
 42
0.4142135623730956
  0
VERTEX
  5
4366
  8
0
 10
-51.619408399570439
 20
20.076742008191829
 30
0.0
  0
VERTEX
  5
4367
  8
0
 10
-51.619408399570439
 20
20.526742008191839
 30
0.0
 42
0.4142135623730946
  0
VERTEX
  5
4368
  8
0
 10
-51.644408399570452
 20
20.551742008191841
 30
0.0
  0
VERTEX
  5
4369
  8
0
 10
-52.194408399570442
 20
20.551742008191841
 30
0.0
 42
0.4142135623730936
  0
VERTEX
  5
436A
  8
0
 10
-52.21940839957044
 20
20.526742008191839
 30
0.0
  0
VERTEX
  5
436B
  8
0
 10
-52.21940839957044
 20
20.076742008191829
 30
0.0
 42
0.4142135623730961
  0
SEQEND
  5
436C
  8
0
  0
POLYLINE
  5
408E
  8
0
 66
     1
 10
0.0
 20
0.0
 30
0.0
 70
     1
  0
VERTEX
  5
436D
  8
0
 10
-52.844408399570447
 20
20.05174200819183
 30
0.0
  0
VERTEX
  5
436E
  8
0
 10
-52.294408399570443
 20
20.05174200819183
 30
0.0
 42
0.4142135623730956
  0
VERTEX
  5
436F
  8
0
 10
-52.269408399570452
 20
20.076742008191829
 30
0.0
  0
VERTEX
  5
4370
  8
0
 10
-52.269408399570452
 20
20.526742008191839
 30
0.0
 42
0.4142135623730946
  0
VERTEX
  5
4371
  8
0
 10
-52.294408399570443
 20
20.551742008191841
 30
0.0
  0
VERTEX
  5
4372
  8
0
 10
-52.84440839957044
 20
20.551742008191841
 30
0.0
 42
0.4142135623730936
  0
VERTEX
  5
4373
  8
0
 10
-52.869408399570439
 20
20.526742008191839
 30
0.0
  0
VERTEX
  5
4374
  8
0
 10
-52.869408399570439
 20
20.076742008191829
 30
0.0
 42
0.4142135623730961
  0
SEQEND
  5
4375
  8
0
  0
POLYLINE
  5
408F
  8
0
 66
     1
 10
0.0
 20
0.0
 30
0.0
 70
     1
  0
VERTEX
  5
4376
  8
0
 10
-53.494408399570439
 20
20.05174200819183
 30
0.0
  0
VERTEX
  5
4377
  8
0
 10
-52.944408399570449
 20
20.05174200819183
 30
0.0
 42
0.4142135623730946
  0
VERTEX
  5
4378
  8
0
 10
-52.919408399570443
 20
20.076742008191829
 30
0.0
  0
VERTEX
  5
4379
  8
0
 10
-52.91940839957045
 20
20.526742008191832
 30
0.0
 42
0.4142135623730946
  0
VERTEX
  5
437A
  8
0
 10
-52.944408399570449
 20
20.551742008191841
 30
0.0
  0
VERTEX
  5
437B
  8
0
 10
-53.494408399570439
 20
20.551742008191841
 30
0.0
 42
0.414213562373094
  0
VERTEX
  5
437C
  8
0
 10
-53.519408399570452
 20
20.526742008191832
 30
0.0
  0
VERTEX
  5
437D
  8
0
 10
-53.519408399570452
 20
20.076742008191829
 30
0.0
 42
0.4142135623730974
  0
SEQEND
  5
437E
  8
0
  0
POLYLINE
  5
4090
  8
0
 66
     1
 10
0.0
 20
0.0
 30
0.0
 70
     1
  0
VERTEX
  5
437F
  8
0
 10
-51.544408399570443
 20
19.50174200819183
 30
0.0
  0
VERTEX
  5
4380
  8
0
 10
-50.994408399570439
 20
19.50174200819183
 30
0.0
 42
0.4142135623730956
  0
VERTEX
  5
4381
  8
0
 10
-50.96940839957044
 20
19.526742008191832
 30
0.0
  0
VERTEX
  5
4382
  8
0
 10
-50.96940839957044
 20
19.976742008191831
 30
0.0
 42
0.4142135623730946
  0
VERTEX
  5
4383
  8
0
 10
-50.994408399570439
 20
20.00174200819183
 30
0.0
  0
VERTEX
  5
4384
  8
0
 10
-51.544408399570429
 20
20.00174200819183
 30
0.0
 42
0.4142135623730936
  0
VERTEX
  5
4385
  8
0
 10
-51.569408399570442
 20
19.976742008191831
 30
0.0
  0
VERTEX
  5
4386
  8
0
 10
-51.569408399570442
 20
19.526742008191832
 30
0.0
 42
0.4142135623730961
  0
SEQEND
  5
4387
  8
0
  0
TEXT
  5
4091
  8
0
 10
-53.21804723188545
 20
19.671796319121899
 30
0.0
 40
0.16
  1
SHIFT
  7
3
 72
     4
 11
-52.894408399570452
 21
19.75174200819183
 31
0.0
  0
POLYLINE
  5
4092
  8
0
 66
     1
 10
0.0
 20
0.0
 30
0.0
 70
     1
  0
VERTEX
  5
4388
  8
0
 10
-53.494408399570439
 20
19.50174200819183
 30
0.0
  0
VERTEX
  5
4389
  8
0
 10
-52.294408399570443
 20
19.50174200819183
 30
0.0
 42
0.4142135623730956
  0
VERTEX
  5
438A
  8
0
 10
-52.269408399570452
 20
19.526742008191832
 30
0.0
  0
VERTEX
  5
438B
  8
0
 10
-52.269408399570452
 20
19.976742008191831
 30
0.0
 42
0.4142135623730946
  0
VERTEX
  5
438C
  8
0
 10
-52.29440839957045
 20
20.00174200819183
 30
0.0
  0
VERTEX
  5
438D
  8
0
 10
-53.494408399570439
 20
20.00174200819183
 30
0.0
 42
0.4142135623730936
  0
VERTEX
  5
438E
  8
0
 10
-53.519408399570452
 20
19.976742008191831
 30
0.0
  0
VERTEX
  5
438F
  8
0
 10
-53.519408399570452
 20
19.526742008191832
 30
0.0
 42
0.4142135623730961
  0
SEQEND
  5
4390
  8
0
  0
TEXT
  5
4093
  8
0
 10
-52.028030259719813
 20
19.62674200819183
 30
0.0
 40
0.25
  1
V
  7
3
 72
     4
 11
-51.91940839957045
 21
19.75174200819183
 31
0.0
  0
POLYLINE
  5
4094
  8
0
 66
     1
 10
0.0
 20
0.0
 30
0.0
 70
     1
  0
VERTEX
  5
4391
  8
0
 10
-52.194408399570442
 20
19.50174200819183
 30
0.0
  0
VERTEX
  5
4392
  8
0
 10
-51.644408399570452
 20
19.50174200819183
 30
0.0
 42
0.4142135623730956
  0
VERTEX
  5
4393
  8
0
 10
-51.619408399570439
 20
19.526742008191832
 30
0.0
  0
VERTEX
  5
4394
  8
0
 10
-51.619408399570439
 20
19.976742008191831
 30
0.0
 42
0.4142135623730946
  0
VERTEX
  5
4395
  8
0
 10
-51.644408399570452
 20
20.00174200819183
 30
0.0
  0
VERTEX
  5
4396
  8
0
 10
-52.194408399570442
 20
20.00174200819183
 30
0.0
 42
0.4142135623730936
  0
VERTEX
  5
4397
  8
0
 10
-52.21940839957044
 20
19.976742008191831
 30
0.0
  0
VERTEX
  5
4398
  8
0
 10
-52.21940839957044
 20
19.526742008191832
 30
0.0
 42
0.4142135623730961
  0
SEQEND
  5
4399
  8
0
  0
POLYLINE
  5
4095
  8
0
 66
     1
 10
0.0
 20
0.0
 30
0.0
 70
     1
  0
VERTEX
  5
439A
  8
0
 10
-50.244408399570439
 20
19.50174200819183
 30
0.0
  0
VERTEX
  5
439B
  8
0
 10
-49.694408399570428
 20
19.50174200819183
 30
0.0
 42
0.4142135623730956
  0
VERTEX
  5
439C
  8
0
 10
-49.669408399570429
 20
19.526742008191832
 30
0.0
  0
VERTEX
  5
439D
  8
0
 10
-49.669408399570429
 20
19.976742008191831
 30
0.0
 42
0.4142135623730946
  0
VERTEX
  5
439E
  8
0
 10
-49.694408399570428
 20
20.00174200819183
 30
0.0
  0
VERTEX
  5
439F
  8
0
 10
-50.244408399570432
 20
20.00174200819183
 30
0.0
 42
0.4142135623730936
  0
VERTEX
  5
43A0
  8
0
 10
-50.269408399570437
 20
19.976742008191831
 30
0.0
  0
VERTEX
  5
43A1
  8
0
 10
-50.269408399570437
 20
19.526742008191832
 30
0.0
 42
0.4142135623730961
  0
SEQEND
  5
43A2
  8
0
  0
TEXT
  5
4096
  8
0
 10
-50.728199981376278
 20
19.62674200819183
 30
0.0
 40
0.25
  1
X
  7
3
 72
     4
 11
-50.619408399570453
 21
19.75174200819183
 31
0.0
  0
POLYLINE
  5
4097
  8
0
 66
     1
 10
0.0
 20
0.0
 30
0.0
 70
     1
  0
VERTEX
  5
43A3
  8
0
 10
-50.894408399570437
 20
19.50174200819183
 30
0.0
  0
VERTEX
  5
43A4
  8
0
 10
-50.34440839957044
 20
19.50174200819183
 30
0.0
 42
0.4142135623730956
  0
VERTEX
  5
43A5
  8
0
 10
-50.319408399570428
 20
19.526742008191832
 30
0.0
  0
VERTEX
  5
43A6
  8
0
 10
-50.319408399570428
 20
19.976742008191831
 30
0.0
 42
0.4142135623730946
  0
VERTEX
  5
43A7
  8
0
 10
-50.34440839957044
 20
20.00174200819183
 30
0.0
  0
VERTEX
  5
43A8
  8
0
 10
-50.894408399570437
 20
20.00174200819183
 30
0.0
 42
0.4142135623730936
  0
VERTEX
  5
43A9
  8
0
 10
-50.919408399570429
 20
19.976742008191831
 30
0.0
  0
VERTEX
  5
43AA
  8
0
 10
-50.919408399570443
 20
19.526742008191832
 30
0.0
 42
0.4142135623730961
  0
SEQEND
  5
43AB
  8
0
  0
TEXT
  5
4098
  8
0
 10
-51.431747163996789
 20
19.62674200819183
 30
0.0
 40
0.25
  1
W
  7
3
 72
     4
 11
-51.269408399570452
 21
19.75174200819183
 31
0.0
  0
TEXT
  5
409A
  8
0
 10
-50.077096790609161
 20
19.62674200819183
 30
0.0
 40
0.25
  1
Y
  7
3
 72
     4
 11
-49.969408399570447
 21
19.75174200819183
 31
0.0
  0
TEXT
  5
409B
  8
0
 10
-48.883460347622389
 20
19.691742008191831
 30
0.0
 40
0.12
  1
SPACE
  7
4
 72
     4
 11
-48.66940839957045
 21
19.75174200819183
 31
0.0
  0
POLYLINE
  5
409C
  8
0
 66
     1
 10
0.0
 20
0.0
 30
0.0
 70
     1
  0
VERTEX
  5
43AC
  8
0
 10
-48.944408399570428
 20
19.50174200819183
 30
0.0
  0
VERTEX
  5
43AD
  8
0
 10
-48.394408399570437
 20
19.50174200819183
 30
0.0
 42
0.4142135623730956
  0
VERTEX
  5
43AE
  8
0
 10
-48.369408399570432
 20
19.526742008191832
 30
0.0
  0
VERTEX
  5
43AF
  8
0
 10
-48.369408399570432
 20
19.976742008191831
 30
0.0
 42
0.4142135623730946
  0
VERTEX
  5
43B0
  8
0
 10
-48.394408399570437
 20
20.00174200819183
 30
0.0
  0
VERTEX
  5
43B1
  8
0
 10
-48.944408399570428
 20
20.00174200819183
 30
0.0
 42
0.4142135623730936
  0
VERTEX
  5
43B2
  8
0
 10
-48.969408399570433
 20
19.976742008191831
 30
0.0
  0
VERTEX
  5
43B3
  8
0
 10
-48.969408399570433
 20
19.526742008191832
 30
0.0
 42
0.4142135623730961
  0
SEQEND
  5
43B4
  8
0
  0
TEXT
  5
409D
  8
0
 10
-49.423872079135961
 20
19.62674200819183
 30
0.0
 40
0.25
  1
Z
  7
3
 72
     4
 11
-49.319408399570449
 21
19.75174200819183
 31
0.0
  0
POLYLINE
  5
409E
  8
0
 66
     1
 10
0.0
 20
0.0
 30
0.0
 70
     1
  0
VERTEX
  5
43B5
  8
0
 10
-49.59440839957044
 20
19.50174200819183
 30
0.0
  0
VERTEX
  5
43B6
  8
0
 10
-49.044408399570429
 20
19.50174200819183
 30
0.0
 42
0.4142135623730956
  0
VERTEX
  5
43B7
  8
0
 10
-49.019408399570437
 20
19.526742008191832
 30
0.0
  0
VERTEX
  5
43B8
  8
0
 10
-49.019408399570437
 20
19.976742008191831
 30
0.0
 42
0.4142135623730946
  0
VERTEX
  5
43B9
  8
0
 10
-49.044408399570429
 20
20.00174200819183
 30
0.0
  0
VERTEX
  5
43BA
  8
0
 10
-49.594408399570433
 20
20.00174200819183
 30
0.0
 42
0.4142135623730936
  0
VERTEX
  5
43BB
  8
0
 10
-49.619408399570432
 20
19.976742008191831
 30
0.0
  0
VERTEX
  5
43BC
  8
0
 10
-49.619408399570432
 20
19.526742008191832
 30
0.0
 42
0.4142135623730961
  0
SEQEND
  5
43BD
  8
0
  0
TEXT
  5
40A0
  8
0
 10
-48.732463389387142
 20
20.226195504457952
 30
0.0
 40
0.16
  1
7
  7
3
 72
     4
 11
-48.669408399570443
 21
20.30174200819183
 31
0.0
  0
TEXT
  5
40A1
  8
0
 10
-48.277317428762572
 20
19.930391023806219
 30
0.0
 40
0.1
  1
=
  7
3
 72
     4
 11
-48.21940839957044
 21
19.951742008191829
 31
0.0
  0
POLYLINE
  5
40A2
  8
0
 66
     1
 10
0.0
 20
0.0
 30
0.0
 70
     1
  0
VERTEX
  5
43BE
  8
0
 10
-51.544408399570443
 20
21.151742008191832
 30
0.0
  0
VERTEX
  5
43BF
  8
0
 10
-50.994408399570439
 20
21.151742008191832
 30
0.0
 42
0.4142135623730956
  0
VERTEX
  5
43C0
  8
0
 10
-50.96940839957044
 20
21.176742008191841
 30
0.0
  0
VERTEX
  5
43C1
  8
0
 10
-50.96940839957044
 20
21.62674200819183
 30
0.0
 42
0.4142135623730946
  0
VERTEX
  5
43C2
  8
0
 10
-50.994408399570439
 20
21.651742008191832
 30
0.0
  0
VERTEX
  5
43C3
  8
0
 10
-51.544408399570429
 20
21.651742008191832
 30
0.0
 42
0.4142135623730936
  0
VERTEX
  5
43C4
  8
0
 10
-51.569408399570442
 20
21.62674200819183
 30
0.0
  0
VERTEX
  5
43C5
  8
0
 10
-51.569408399570442
 20
21.176742008191841
 30
0.0
 42
0.4142135623730961
  0
SEQEND
  5
43C6
  8
0
  0
POLYLINE
  5
40A3
  8
0
 66
     1
 10
0.0
 20
0.0
 30
0.0
 70
     1
  0
VERTEX
  5
43C7
  8
0
 10
-51.544408399570443
 20
20.601742008191831
 30
0.0
  0
VERTEX
  5
43C8
  8
0
 10
-50.994408399570439
 20
20.601742008191831
 30
0.0
 42
0.4142135623730956
  0
VERTEX
  5
43C9
  8
0
 10
-50.96940839957044
 20
20.62674200819183
 30
0.0
  0
VERTEX
  5
43CA
  8
0
 10
-50.96940839957044
 20
21.076742008191829
 30
0.0
 42
0.4142135623730946
  0
VERTEX
  5
43CB
  8
0
 10
-50.994408399570439
 20
21.101742008191831
 30
0.0
  0
VERTEX
  5
43CC
  8
0
 10
-51.544408399570429
 20
21.101742008191831
 30
0.0
 42
0.4142135623730936
  0
VERTEX
  5
43CD
  8
0
 10
-51.569408399570442
 20
21.076742008191829
 30
0.0
  0
VERTEX
  5
43CE
  8
0
 10
-51.569408399570442
 20
20.62674200819183
 30
0.0
 42
0.4142135623730961
  0
SEQEND
  5
43CF
  8
0
  0
TEXT
  5
40A4
  8
0
 10
-53.338637863250007
 20
21.276742008191832
 30
0.0
 40
0.25
  1
A
  7
3
 72
     4
 11
-53.21940839957044
 21
21.401742008191832
 31
0.0
  0
TEXT
  5
40A5
  8
0
 10
-53.348566580154291
 20
20.726742008191831
 30
0.0
 40
0.25
  1
H
  7
3
 72
     4
 11
-53.21940839957044
 21
20.851742008191831
 31
0.0
  0
POLYLINE
  5
40A6
  8
0
 66
     1
 10
0.0
 20
0.0
 30
0.0
 70
     1
  0
VERTEX
  5
43D0
  8
0
 10
-53.494408399570439
 20
21.151742008191832
 30
0.0
  0
VERTEX
  5
43D1
  8
0
 10
-52.944408399570449
 20
21.151742008191832
 30
0.0
 42
0.4142135623730956
  0
VERTEX
  5
43D2
  8
0
 10
-52.919408399570443
 20
21.176742008191841
 30
0.0
  0
VERTEX
  5
43D3
  8
0
 10
-52.91940839957045
 20
21.62674200819183
 30
0.0
 42
0.4142135623730946
  0
VERTEX
  5
43D4
  8
0
 10
-52.944408399570449
 20
21.651742008191832
 30
0.0
  0
VERTEX
  5
43D5
  8
0
 10
-53.494408399570439
 20
21.651742008191832
 30
0.0
 42
0.4142135623730936
  0
VERTEX
  5
43D6
  8
0
 10
-53.519408399570452
 20
21.62674200819183
 30
0.0
  0
VERTEX
  5
43D7
  8
0
 10
-53.519408399570452
 20
21.176742008191841
 30
0.0
 42
0.4142135623730961
  0
SEQEND
  5
43D8
  8
0
  0
POLYLINE
  5
40A7
  8
0
 66
     1
 10
0.0
 20
0.0
 30
0.0
 70
     1
  0
VERTEX
  5
43D9
  8
0
 10
-53.494408399570439
 20
20.601742008191831
 30
0.0
  0
VERTEX
  5
43DA
  8
0
 10
-52.944408399570449
 20
20.601742008191831
 30
0.0
 42
0.4142135623730956
  0
VERTEX
  5
43DB
  8
0
 10
-52.919408399570443
 20
20.62674200819183
 30
0.0
  0
VERTEX
  5
43DC
  8
0
 10
-52.91940839957045
 20
21.076742008191829
 30
0.0
 42
0.4142135623730946
  0
VERTEX
  5
43DD
  8
0
 10
-52.944408399570449
 20
21.101742008191831
 30
0.0
  0
VERTEX
  5
43DE
  8
0
 10
-53.494408399570439
 20
21.101742008191831
 30
0.0
 42
0.4142135623730936
  0
VERTEX
  5
43DF
  8
0
 10
-53.519408399570452
 20
21.076742008191829
 30
0.0
  0
VERTEX
  5
43E0
  8
0
 10
-53.519408399570452
 20
20.62674200819183
 30
0.0
 42
0.4142135623730961
  0
SEQEND
  5
43E1
  8
0
  0
POLYLINE
  5
40A9
  8
0
 66
     1
 10
0.0
 20
0.0
 30
0.0
 70
     1
  0
VERTEX
  5
43E2
  8
0
 10
-52.194408399570442
 20
21.151742008191832
 30
0.0
  0
VERTEX
  5
43E3
  8
0
 10
-51.644408399570452
 20
21.151742008191832
 30
0.0
 42
0.4142135623730956
  0
VERTEX
  5
43E4
  8
0
 10
-51.619408399570439
 20
21.176742008191841
 30
0.0
  0
VERTEX
  5
43E5
  8
0
 10
-51.619408399570439
 20
21.62674200819183
 30
0.0
 42
0.4142135623730946
  0
VERTEX
  5
43E6
  8
0
 10
-51.644408399570452
 20
21.651742008191832
 30
0.0
  0
VERTEX
  5
43E7
  8
0
 10
-52.194408399570442
 20
21.651742008191832
 30
0.0
 42
0.4142135623730936
  0
VERTEX
  5
43E8
  8
0
 10
-52.21940839957044
 20
21.62674200819183
 30
0.0
  0
VERTEX
  5
43E9
  8
0
 10
-52.21940839957044
 20
21.176742008191841
 30
0.0
 42
0.4142135623730961
  0
SEQEND
  5
43EA
  8
0
  0
POLYLINE
  5
40AA
  8
0
 66
     1
 10
0.0
 20
0.0
 30
0.0
 70
     1
  0
VERTEX
  5
43EB
  8
0
 10
-52.844408399570447
 20
21.151742008191832
 30
0.0
  0
VERTEX
  5
43EC
  8
0
 10
-52.294408399570443
 20
21.151742008191832
 30
0.0
 42
0.4142135623730956
  0
VERTEX
  5
43ED
  8
0
 10
-52.269408399570452
 20
21.176742008191841
 30
0.0
  0
VERTEX
  5
43EE
  8
0
 10
-52.269408399570452
 20
21.62674200819183
 30
0.0
 42
0.4142135623730946
  0
VERTEX
  5
43EF
  8
0
 10
-52.294408399570443
 20
21.651742008191832
 30
0.0
  0
VERTEX
  5
43F0
  8
0
 10
-52.84440839957044
 20
21.651742008191832
 30
0.0
 42
0.4142135623730936
  0
VERTEX
  5
43F1
  8
0
 10
-52.869408399570439
 20
21.62674200819183
 30
0.0
  0
VERTEX
  5
43F2
  8
0
 10
-52.869408399570439
 20
21.176742008191841
 30
0.0
 42
0.4142135623730961
  0
SEQEND
  5
43F3
  8
0
  0
POLYLINE
  5
40AB
  8
0
 66
     1
 10
0.0
 20
0.0
 30
0.0
 70
     1
  0
VERTEX
  5
43F4
  8
0
 10
-52.844408399570447
 20
20.601742008191831
 30
0.0
  0
VERTEX
  5
43F5
  8
0
 10
-52.294408399570443
 20
20.601742008191831
 30
0.0
 42
0.4142135623730956
  0
VERTEX
  5
43F6
  8
0
 10
-52.269408399570452
 20
20.62674200819183
 30
0.0
  0
VERTEX
  5
43F7
  8
0
 10
-52.269408399570452
 20
21.076742008191829
 30
0.0
 42
0.4142135623730946
  0
VERTEX
  5
43F8
  8
0
 10
-52.294408399570443
 20
21.101742008191831
 30
0.0
  0
VERTEX
  5
43F9
  8
0
 10
-52.84440839957044
 20
21.101742008191831
 30
0.0
 42
0.4142135623730936
  0
VERTEX
  5
43FA
  8
0
 10
-52.869408399570439
 20
21.076742008191829
 30
0.0
  0
VERTEX
  5
43FB
  8
0
 10
-52.869408399570439
 20
20.62674200819183
 30
0.0
 42
0.4142135623730961
  0
SEQEND
  5
43FC
  8
0
  0
TEXT
  5
40AC
  8
0
 10
-52.62261613887798
 20
20.726742008191831
 30
0.0
 40
0.25
  1
I
  7
3
 72
     4
 11
-52.569408399570449
 21
20.851742008191831
 31
0.0
  0
TEXT
  5
40AD
  8
0
 10
-52.68295218775782
 20
21.276742008191832
 30
0.0
 40
0.25
  1
B
  7
3
 72
     4
 11
-52.569408399570449
 21
21.401742008191832
 31
0.0
  0
TEXT
  5
40AE
  8
0
 10
-52.025229852387831
 20
20.73022130214974
 30
0.0
 40
0.25
  1
J
  7
3
 72
     4
 11
-51.91940839957045
 21
20.851742008191831
 31
0.0
  0
POLYLINE
  5
40AF
  8
0
 66
     1
 10
0.0
 20
0.0
 30
0.0
 70
     1
  0
VERTEX
  5
43FD
  8
0
 10
-52.194408399570442
 20
20.601742008191831
 30
0.0
  0
VERTEX
  5
43FE
  8
0
 10
-51.644408399570452
 20
20.601742008191831
 30
0.0
 42
0.4142135623730956
  0
VERTEX
  5
43FF
  8
0
 10
-51.619408399570439
 20
20.62674200819183
 30
0.0
  0
VERTEX
  5
4400
  8
0
 10
-51.619408399570439
 20
21.076742008191829
 30
0.0
 42
0.4142135623730946
  0
VERTEX
  5
4401
  8
0
 10
-51.644408399570452
 20
21.101742008191831
 30
0.0
  0
VERTEX
  5
4402
  8
0
 10
-52.194408399570442
 20
21.101742008191831
 30
0.0
 42
0.4142135623730936
  0
VERTEX
  5
4403
  8
0
 10
-52.21940839957044
 20
21.076742008191829
 30
0.0
  0
VERTEX
  5
4404
  8
0
 10
-52.21940839957044
 20
20.62674200819183
 30
0.0
 42
0.4142135623730961
  0
SEQEND
  5
4405
  8
0
  0
TEXT
  5
40B0
  8
0
 10
-52.048736301810777
 20
21.27699659067655
 30
0.0
 40
0.25
  1
C
  7
3
 72
     4
 11
-51.91940839957045
 21
21.401742008191832
 31
0.0
  0
POLYLINE
  5
40CB
  8
0
 66
     1
 10
0.0
 20
0.0
 30
0.0
 70
     1
  0
VERTEX
  5
4406
  8
0
 10
-50.244408399570439
 20
21.151742008191832
 30
0.0
  0
VERTEX
  5
4407
  8
0
 10
-49.694408399570428
 20
21.151742008191832
 30
0.0
 42
0.4142135623730956
  0
VERTEX
  5
4408
  8
0
 10
-49.669408399570429
 20
21.176742008191841
 30
0.0
  0
VERTEX
  5
4409
  8
0
 10
-49.669408399570429
 20
21.62674200819183
 30
0.0
 42
0.4142135623730946
  0
VERTEX
  5
440A
  8
0
 10
-49.694408399570428
 20
21.651742008191832
 30
0.0
  0
VERTEX
  5
440B
  8
0
 10
-50.244408399570432
 20
21.651742008191832
 30
0.0
 42
0.4142135623730936
  0
VERTEX
  5
440C
  8
0
 10
-50.269408399570437
 20
21.62674200819183
 30
0.0
  0
VERTEX
  5
440D
  8
0
 10
-50.269408399570437
 20
21.176742008191841
 30
0.0
 42
0.4142135623730961
  0
SEQEND
  5
440E
  8
0
  0
POLYLINE
  5
40CC
  8
0
 66
     1
 10
0.0
 20
0.0
 30
0.0
 70
     1
  0
VERTEX
  5
440F
  8
0
 10
-50.244408399570439
 20
20.601742008191831
 30
0.0
  0
VERTEX
  5
4410
  8
0
 10
-49.694408399570428
 20
20.601742008191831
 30
0.0
 42
0.4142135623730956
  0
VERTEX
  5
4411
  8
0
 10
-49.669408399570429
 20
20.62674200819183
 30
0.0
  0
VERTEX
  5
4412
  8
0
 10
-49.669408399570429
 20
21.076742008191829
 30
0.0
 42
0.4142135623730946
  0
VERTEX
  5
4413
  8
0
 10
-49.694408399570428
 20
21.101742008191831
 30
0.0
  0
VERTEX
  5
4414
  8
0
 10
-50.244408399570432
 20
21.101742008191831
 30
0.0
 42
0.4142135623730936
  0
VERTEX
  5
4415
  8
0
 10
-50.269408399570437
 20
21.076742008191829
 30
0.0
  0
VERTEX
  5
4416
  8
0
 10
-50.269408399570437
 20
20.62674200819183
 30
0.0
 42
0.4142135623730961
  0
SEQEND
  5
4417
  8
0
  0
POLYLINE
  5
40CD
  8
0
 66
     1
 10
0.0
 20
0.0
 30
0.0
 70
     1
  0
VERTEX
  5
4418
  8
0
 10
-50.894408399570437
 20
21.151742008191832
 30
0.0
  0
VERTEX
  5
4419
  8
0
 10
-50.34440839957044
 20
21.151742008191832
 30
0.0
 42
0.4142135623730956
  0
VERTEX
  5
441A
  8
0
 10
-50.319408399570428
 20
21.176742008191841
 30
0.0
  0
VERTEX
  5
441B
  8
0
 10
-50.319408399570428
 20
21.62674200819183
 30
0.0
 42
0.4142135623730946
  0
VERTEX
  5
441C
  8
0
 10
-50.34440839957044
 20
21.651742008191832
 30
0.0
  0
VERTEX
  5
441D
  8
0
 10
-50.894408399570437
 20
21.651742008191832
 30
0.0
 42
0.4142135623730936
  0
VERTEX
  5
441E
  8
0
 10
-50.919408399570429
 20
21.62674200819183
 30
0.0
  0
VERTEX
  5
441F
  8
0
 10
-50.919408399570443
 20
21.176742008191841
 30
0.0
 42
0.4142135623730961
  0
SEQEND
  5
4420
  8
0
  0
TEXT
  5
40CE
  8
0
 10
-50.724041800792442
 20
21.276742008191832
 30
0.0
 40
0.25
  1
E
  7
3
 72
     4
 11
-50.619408399570453
 21
21.401742008191832
 31
0.0
  0
TEXT
  5
40CF
  8
0
 10
-50.711397537384421
 20
20.726742008191831
 30
0.0
 40
0.25
  1
L
  7
3
 72
     4
 11
-50.619408399570453
 21
20.851742008191831
 31
0.0
  0
POLYLINE
  5
40D0
  8
0
 66
     1
 10
0.0
 20
0.0
 30
0.0
 70
     1
  0
VERTEX
  5
4421
  8
0
 10
-50.894408399570437
 20
20.601742008191831
 30
0.0
  0
VERTEX
  5
4422
  8
0
 10
-50.34440839957044
 20
20.601742008191831
 30
0.0
 42
0.4142135623730956
  0
VERTEX
  5
4423
  8
0
 10
-50.319408399570428
 20
20.62674200819183
 30
0.0
  0
VERTEX
  5
4424
  8
0
 10
-50.319408399570428
 20
21.076742008191829
 30
0.0
 42
0.4142135623730946
  0
VERTEX
  5
4425
  8
0
 10
-50.34440839957044
 20
21.101742008191831
 30
0.0
  0
VERTEX
  5
4426
  8
0
 10
-50.894408399570437
 20
21.101742008191831
 30
0.0
 42
0.4142135623730936
  0
VERTEX
  5
4427
  8
0
 10
-50.919408399570429
 20
21.076742008191829
 30
0.0
  0
VERTEX
  5
4428
  8
0
 10
-50.919408399570443
 20
20.62674200819183
 30
0.0
 42
0.4142135623730961
  0
SEQEND
  5
4429
  8
0
  0
TEXT
  5
40D1
  8
0
 10
-51.384649404322658
 20
20.726742008191831
 30
0.0
 40
0.25
  1
K
  7
3
 72
     4
 11
-51.269408399570452
 21
20.851742008191831
 31
0.0
  0
TEXT
  5
40D2
  8
0
 10
-51.386940646685183
 20
21.276742008191832
 30
0.0
 40
0.25
  1
D
  7
3
 72
     4
 11
-51.269408399570452
 21
21.401742008191832
 31
0.0
  0
TEXT
  5
40D3
  8
0
 10
-50.120800117153621
 20
20.726742008191831
 30
0.0
 40
0.25
  1
M
  7
3
 72
     4
 11
-49.969408399570447
 21
20.851742008191831
 31
0.0
  0
TEXT
  5
40D4
  8
0
 10
-50.064537388029379
 20
21.276742008191832
 30
0.0
 40
0.25
  1
F
  7
3
 72
     4
 11
-49.969408399570447
 21
21.401742008191832
 31
0.0
  0
TEXT
  5
40D5
  8
0
 10
-48.922870721362699
 20
21.552386950486461
 30
0.0
 40
0.1
  1
#
  7
3
 72
     4
 11
-48.869408399570453
 21
21.60174200819182
 31
0.0
  0
POLYLINE
  5
40D6
  8
0
 66
     1
 10
0.0
 20
0.0
 30
0.0
 70
     1
  0
VERTEX
  5
442A
  8
0
 10
-48.944408399570449
 20
21.151742008191832
 30
0.0
  0
VERTEX
  5
442B
  8
0
 10
-48.394408399570437
 20
21.151742008191832
 30
0.0
 42
0.4142135623730951
  0
VERTEX
  5
442C
  8
0
 10
-48.369408399570439
 20
21.17674200819183
 30
0.0
  0
VERTEX
  5
442D
  8
0
 10
-48.369408399570439
 20
21.62674200819183
 30
0.0
 42
0.4142135623730982
  0
VERTEX
  5
442E
  8
0
 10
-48.394408399570437
 20
21.651742008191832
 30
0.0
  0
VERTEX
  5
442F
  8
0
 10
-48.563506700132947
 20
21.651742008191821
 30
0.0
 42
0.1164338214658502
  0
VERTEX
  5
4430
  8
0
 10
-48.57468704002045
 20
21.64910268796682
 30
0.0
  0
VERTEX
  5
4431
  8
0
 10
-48.955588739457951
 20
21.45865183824807
 30
0.0
 42
0.2840790438404128
  0
VERTEX
  5
4432
  8
0
 10
-48.969408399570447
 20
21.436291158473079
 30
0.0
  0
VERTEX
  5
4433
  8
0
 10
-48.969408399570447
 20
21.17674200819183
 30
0.0
 42
0.4142135623730961
  0
SEQEND
  5
4434
  8
0
  0
POLYLINE
  5
40D7
  8
0
 66
     1
 10
0.0
 20
0.0
 30
0.0
 70
     1
  0
VERTEX
  5
4435
  8
0
 10
-49.59440839957044
 20
21.151742008191832
 30
0.0
  0
VERTEX
  5
4436
  8
0
 10
-49.044408399570429
 20
21.151742008191832
 30
0.0
 42
0.4142135623730956
  0
VERTEX
  5
4437
  8
0
 10
-49.019408399570437
 20
21.176742008191841
 30
0.0
  0
VERTEX
  5
4438
  8
0
 10
-49.019408399570437
 20
21.62674200819183
 30
0.0
 42
0.4142135623730946
  0
VERTEX
  5
4439
  8
0
 10
-49.044408399570429
 20
21.651742008191832
 30
0.0
  0
VERTEX
  5
443A
  8
0
 10
-49.594408399570433
 20
21.651742008191832
 30
0.0
 42
0.4142135623730936
  0
VERTEX
  5
443B
  8
0
 10
-49.619408399570432
 20
21.62674200819183
 30
0.0
  0
VERTEX
  5
443C
  8
0
 10
-49.619408399570432
 20
21.176742008191841
 30
0.0
 42
0.4142135623730961
  0
SEQEND
  5
443D
  8
0
  0
POLYLINE
  5
40D8
  8
0
 66
     1
 10
0.0
 20
0.0
 30
0.0
 70
     1
  0
VERTEX
  5
443E
  8
0
 10
-48.944408399570449
 20
20.601742008191831
 30
0.0
  0
VERTEX
  5
443F
  8
0
 10
-48.394408399570437
 20
20.601742008191831
 30
0.0
 42
0.4142135623730951
  0
VERTEX
  5
4440
  8
0
 10
-48.369408399570439
 20
20.62674200819183
 30
0.0
  0
VERTEX
  5
4441
  8
0
 10
-48.369408399570439
 20
21.076742008191822
 30
0.0
 42
0.4142135623730982
  0
VERTEX
  5
4442
  8
0
 10
-48.394408399570437
 20
21.101742008191831
 30
0.0
  0
VERTEX
  5
4443
  8
0
 10
-48.563506700132947
 20
21.10174200819182
 30
0.0
 42
0.1164338214658502
  0
VERTEX
  5
4444
  8
0
 10
-48.57468704002045
 20
21.09910268796682
 30
0.0
  0
VERTEX
  5
4445
  8
0
 10
-48.955588739457951
 20
20.90865183824808
 30
0.0
 42
0.2840790438404128
  0
VERTEX
  5
4446
  8
0
 10
-48.969408399570447
 20
20.886291158473082
 30
0.0
  0
VERTEX
  5
4447
  8
0
 10
-48.969408399570447
 20
20.62674200819183
 30
0.0
 42
0.4142135623730961
  0
SEQEND
  5
4448
  8
0
  0
TEXT
  5
40D9
  8
0
 10
-49.448227136841318
 20
20.726742008191831
 30
0.0
 40
0.25
  1
N
  7
3
 72
     4
 11
-49.319408399570449
 21
20.851742008191831
 31
0.0
  0
POLYLINE
  5
40DA
  8
0
 66
     1
 10
0.0
 20
0.0
 30
0.0
 70
     1
  0
VERTEX
  5
4449
  8
0
 10
-49.59440839957044
 20
20.601742008191831
 30
0.0
  0
VERTEX
  5
444A
  8
0
 10
-49.044408399570429
 20
20.601742008191831
 30
0.0
 42
0.4142135623730956
  0
VERTEX
  5
444B
  8
0
 10
-49.019408399570437
 20
20.62674200819183
 30
0.0
  0
VERTEX
  5
444C
  8
0
 10
-49.019408399570437
 20
21.076742008191829
 30
0.0
 42
0.4142135623730946
  0
VERTEX
  5
444D
  8
0
 10
-49.044408399570429
 20
21.101742008191831
 30
0.0
  0
VERTEX
  5
444E
  8
0
 10
-49.594408399570433
 20
21.101742008191831
 30
0.0
 42
0.4142135623730936
  0
VERTEX
  5
444F
  8
0
 10
-49.619408399570432
 20
21.076742008191829
 30
0.0
  0
VERTEX
  5
4450
  8
0
 10
-49.619408399570432
 20
20.62674200819183
 30
0.0
 42
0.4142135623730961
  0
SEQEND
  5
4451
  8
0
  0
TEXT
  5
40DB
  8
0
 10
-48.8989908842955
 20
20.50403325055435
 30
0.0
 40
0.15
  1
,
  7
3
 72
     4
 11
-48.869408399570453
 21
20.50174200819183
 31
0.0
  0
TEXT
  5
40DC
  8
0
 10
-49.464350694207248
 20
21.27699659067655
 30
0.0
 40
0.25
  1
G
  7
3
 72
     4
 11
-49.319408399570449
 21
21.401742008191832
 31
0.0
  0
TEXT
  5
40DD
  8
0
 10
-48.89069149529346
 20
21.015455518035679
 30
0.0
 40
0.1
  1
:
  7
3
 72
     4
 11
-48.869408399570453
 21
21.05174200819182
 31
0.0
  0
TEXT
  5
40DE
  8
0
 10
-48.732463389387142
 20
20.776195504457949
 30
0.0
 40
0.16
  1
4
  7
3
 72
     4
 11
-48.669408399570443
 21
20.851742008191831
 31
0.0
  0
TEXT
  5
40DF
  8
0
 10
-48.258817768205887
 20
20.456629991898549
 30
0.0
 40
0.1
  1
$
  7
3
 72
     4
 11
-48.21940839957044
 21
20.50174200819183
 31
0.0
  0
TEXT
  5
40E0
  8
0
 10
-48.727358161960119
 20
21.323968756324891
 30
0.0
 40
0.16
  1
1
  7
3
 72
     4
 11
-48.669408399570443
 21
21.401742008191832
 31
0.0
  0
TEXT
  5
40E1
  8
0
 10
-48.279184366983891
 20
21.004525443358151
 30
0.0
 40
0.1
  1
%
  7
3
 72
     4
 11
-48.21940839957044
 21
21.05174200819182
 31
0.0
  0
TEXT
  5
40E2
  8
0
 10
-48.258206770242538
 20
21.55045212360255
 30
0.0
 40
0.1
  1
?
  7
3
 72
     4
 11
-48.21940839957044
 21
21.60174200819182
 31
0.0
  0
TEXT
  5
40E3
  8
0
 10
-46.786373776352526
 20
20.346742008191828
 30
0.0
 40
0.16
  1
E
  7
3
 72
     4
 11
-46.71940839957044
 21
20.42674200819182
 31
0.0
  0
POLYLINE
  5
40E4
  8
0
 66
     1
 10
0.0
 20
0.0
 30
0.0
 70
     1
  0
VERTEX
  5
4452
  8
0
 10
-47.644408399570452
 20
20.05174200819183
 30
0.0
  0
VERTEX
  5
4453
  8
0
 10
-47.094408399570447
 20
20.05174200819183
 30
0.0
 42
0.4142135623730951
  0
VERTEX
  5
4454
  8
0
 10
-47.069408399570442
 20
20.076742008191829
 30
0.0
  0
VERTEX
  5
4455
  8
0
 10
-47.069408399570442
 20
20.526742008191832
 30
0.0
 42
0.4142135623730982
  0
VERTEX
  5
4456
  8
0
 10
-47.094408399570447
 20
20.55174200819183
 30
0.0
  0
VERTEX
  5
4457
  8
0
 10
-47.26350670013295
 20
20.55174200819183
 30
0.0
 42
0.1164338214658502
  0
VERTEX
  5
4458
  8
0
 10
-47.274687040020453
 20
20.54910268796683
 30
0.0
  0
VERTEX
  5
4459
  8
0
 10
-47.655588739457947
 20
20.358651838248079
 30
0.0
 42
0.2840790438404128
  0
VERTEX
  5
445A
  8
0
 10
-47.66940839957045
 20
20.336291158473081
 30
0.0
  0
VERTEX
  5
445B
  8
0
 10
-47.66940839957045
 20
20.076742008191829
 30
0.0
 42
0.4142135623730961
  0
SEQEND
  5
445C
  8
0
  0
POLYLINE
  5
40E5
  8
0
 66
     1
 10
0.0
 20
0.0
 30
0.0
 70
     1
  0
VERTEX
  5
445D
  8
0
 10
-46.994408399570432
 20
19.50174200819183
 30
0.0
  0
VERTEX
  5
445E
  8
0
 10
-46.44440839957042
 20
19.50174200819183
 30
0.0
 42
0.4142135623730956
  0
VERTEX
  5
445F
  8
0
 10
-46.419408399570429
 20
19.526742008191832
 30
0.0
  0
VERTEX
  5
4460
  8
0
 10
-46.419408399570429
 20
20.526742008191839
 30
0.0
 42
0.4142135623730946
  0
VERTEX
  5
4461
  8
0
 10
-46.44440839957042
 20
20.551742008191841
 30
0.0
  0
VERTEX
  5
4462
  8
0
 10
-46.994408399570418
 20
20.551742008191841
 30
0.0
 42
0.4142135623730936
  0
VERTEX
  5
4463
  8
0
 10
-47.019408399570423
 20
20.526742008191839
 30
0.0
  0
VERTEX
  5
4464
  8
0
 10
-47.019408399570423
 20
19.526742008191832
 30
0.0
 42
0.4142135623730961
  0
SEQEND
  5
4465
  8
0
  0
POLYLINE
  5
40E6
  8
0
 66
     1
 10
0.0
 20
0.0
 30
0.0
 70
     1
  0
VERTEX
  5
4466
  8
0
 10
-47.644408399570452
 20
19.50174200819183
 30
0.0
  0
VERTEX
  5
4467
  8
0
 10
-47.094408399570447
 20
19.50174200819183
 30
0.0
 42
0.4142135623730951
  0
VERTEX
  5
4468
  8
0
 10
-47.069408399570442
 20
19.526742008191832
 30
0.0
  0
VERTEX
  5
4469
  8
0
 10
-47.069408399570442
 20
19.976742008191831
 30
0.0
 42
0.4142135623730982
  0
VERTEX
  5
446A
  8
0
 10
-47.094408399570447
 20
20.00174200819183
 30
0.0
  0
VERTEX
  5
446B
  8
0
 10
-47.26350670013295
 20
20.00174200819183
 30
0.0
 42
0.1164338214658502
  0
VERTEX
  5
446C
  8
0
 10
-47.274687040020453
 20
19.999102687966818
 30
0.0
  0
VERTEX
  5
446D
  8
0
 10
-47.655588739457947
 20
19.808651838248078
 30
0.0
 42
0.2840790438404128
  0
VERTEX
  5
446E
  8
0
 10
-47.66940839957045
 20
19.78629115847308
 30
0.0
  0
VERTEX
  5
446F
  8
0
 10
-47.66940839957045
 20
19.526742008191832
 30
0.0
 42
0.4142135623730961
  0
SEQEND
  5
4470
  8
0
  0
TEXT
  5
40E7
  8
0
 10
-47.400854428083683
 20
19.735394418239348
 30
0.0
 40
0.16
  1
.
  7
3
 72
     4
 11
-47.369408399570439
 21
19.75174200819183
 31
0.0
  0
TEXT
  5
40E9
  8
0
 10
-47.432463389387138
 20
20.226304126318102
 30
0.0
 40
0.16
  1
9
  7
3
 72
     4
 11
-47.369408399570439
 21
20.30174200819183
 31
0.0
  0
TEXT
  5
40EA
  8
0
 10
-46.786373776352526
 20
19.746742008191831
 30
0.0
 40
0.16
  1
E
  7
3
 72
     4
 11
-46.71940839957044
 21
19.826742008191822
 31
0.0
  0
TEXT
  5
40EC
  8
0
 10
-46.793162642611861
 20
19.546742008191831
 30
0.0
 40
0.16
  1
R
  7
3
 72
     4
 11
-46.71940839957044
 21
19.62674200819183
 31
0.0
  0
TEXT
  5
40ED
  8
0
 10
-46.801852391423807
 20
20.146742008191829
 30
0.0
 40
0.16
  1
N
  7
3
 72
     4
 11
-46.71940839957044
 21
20.226742008191831
 31
0.0
  0
TEXT
  5
40EE
  8
0
 10
-46.785504801471333
 20
19.94674200819183
 30
0.0
 40
0.16
  1
T
  7
3
 72
     4
 11
-46.71940839957044
 21
20.026742008191832
 31
0.0
  0
POLYLINE
  5
40EF
  8
0
 66
     1
 10
0.0
 20
0.0
 30
0.0
 70
     1
  0
VERTEX
  5
4471
  8
0
 10
-47.644408399570452
 20
21.151742008191832
 30
0.0
  0
VERTEX
  5
4472
  8
0
 10
-47.094408399570447
 20
21.151742008191832
 30
0.0
 42
0.4142135623730951
  0
VERTEX
  5
4473
  8
0
 10
-47.069408399570442
 20
21.17674200819183
 30
0.0
  0
VERTEX
  5
4474
  8
0
 10
-47.069408399570442
 20
21.62674200819183
 30
0.0
 42
0.4142135623730982
  0
VERTEX
  5
4475
  8
0
 10
-47.094408399570447
 20
21.651742008191832
 30
0.0
  0
VERTEX
  5
4476
  8
0
 10
-47.26350670013295
 20
21.651742008191821
 30
0.0
 42
0.1164338214658502
  0
VERTEX
  5
4477
  8
0
 10
-47.274687040020453
 20
21.64910268796682
 30
0.0
  0
VERTEX
  5
4478
  8
0
 10
-47.655588739457947
 20
21.45865183824807
 30
0.0
 42
0.2840790438404128
  0
VERTEX
  5
4479
  8
0
 10
-47.66940839957045
 20
21.436291158473079
 30
0.0
  0
VERTEX
  5
447A
  8
0
 10
-47.66940839957045
 20
21.17674200819183
 30
0.0
 42
0.4142135623730961
  0
SEQEND
  5
447B
  8
0
  0
POLYLINE
  5
40F0
  8
0
 66
     1
 10
0.0
 20
0.0
 30
0.0
 70
     1
  0
VERTEX
  5
447C
  8
0
 10
-46.994408399570432
 20
21.151742008191832
 30
0.0
  0
VERTEX
  5
447D
  8
0
 10
-46.44440839957042
 20
21.151742008191832
 30
0.0
 42
0.4142135623730956
  0
VERTEX
  5
447E
  8
0
 10
-46.419408399570429
 20
21.176742008191841
 30
0.0
  0
VERTEX
  5
447F
  8
0
 10
-46.419408399570429
 20
21.62674200819183
 30
0.0
 42
0.4142135623730946
  0
VERTEX
  5
4480
  8
0
 10
-46.44440839957042
 20
21.651742008191832
 30
0.0
  0
VERTEX
  5
4481
  8
0
 10
-46.994408399570418
 20
21.651742008191832
 30
0.0
 42
0.4142135623730936
  0
VERTEX
  5
4482
  8
0
 10
-47.019408399570423
 20
21.62674200819183
 30
0.0
  0
VERTEX
  5
4483
  8
0
 10
-47.019408399570423
 20
21.176742008191841
 30
0.0
 42
0.4142135623730961
  0
SEQEND
  5
4484
  8
0
  0
POLYLINE
  5
40F1
  8
0
 66
     1
 10
0.0
 20
0.0
 30
0.0
 70
     1
  0
VERTEX
  5
4485
  8
0
 10
-47.644408399570452
 20
20.601742008191831
 30
0.0
  0
VERTEX
  5
4486
  8
0
 10
-47.094408399570447
 20
20.601742008191831
 30
0.0
 42
0.4142135623730951
  0
VERTEX
  5
4487
  8
0
 10
-47.069408399570442
 20
20.62674200819183
 30
0.0
  0
VERTEX
  5
4488
  8
0
 10
-47.069408399570442
 20
21.076742008191822
 30
0.0
 42
0.4142135623730982
  0
VERTEX
  5
4489
  8
0
 10
-47.094408399570447
 20
21.101742008191831
 30
0.0
  0
VERTEX
  5
448A
  8
0
 10
-47.26350670013295
 20
21.10174200819182
 30
0.0
 42
0.1164338214658502
  0
VERTEX
  5
448B
  8
0
 10
-47.274687040020453
 20
21.09910268796682
 30
0.0
  0
VERTEX
  5
448C
  8
0
 10
-47.655588739457947
 20
20.90865183824808
 30
0.0
 42
0.2840790438404128
  0
VERTEX
  5
448D
  8
0
 10
-47.66940839957045
 20
20.886291158473082
 30
0.0
  0
VERTEX
  5
448E
  8
0
 10
-47.66940839957045
 20
20.62674200819183
 30
0.0
 42
0.4142135623730961
  0
SEQEND
  5
448F
  8
0
  0
TEXT
  5
40F2
  8
0
 10
-47.627317428762566
 20
20.460295979678591
 30
0.0
 40
0.1
  1
+
  7
3
 72
     4
 11
-47.569408399570449
 21
20.50174200819183
 31
0.0
  0
TEXT
  5
40F3
  8
0
 10
-47.432463389387138
 20
20.776304126318099
 30
0.0
 40
0.16
  1
6
  7
3
 72
     4
 11
-47.369408399570439
 21
20.851742008191831
 31
0.0
  0
TEXT
  5
40F4
  8
0
 10
-47.591438270581982
 20
21.006901546548921
 30
0.0
 40
0.1
  1
/
  7
3
 72
     4
 11
-47.569408399570449
 21
21.05174200819182
 31
0.0
  0
TEXT
  5
40F5
  8
0
 10
-47.432463389387138
 20
21.326304126318099
 30
0.0
 40
0.16
  1
3
  7
3
 72
     4
 11
-47.369408399570439
 21
21.401742008191832
 31
0.0
  0
POLYLINE
  5
40F6
  8
0
 66
     1
 10
0.0
 20
0.0
 30
0.0
 70
     1
  0
VERTEX
  5
4490
  8
0
 10
-46.994408399570432
 20
20.601742008191831
 30
0.0
  0
VERTEX
  5
4491
  8
0
 10
-46.44440839957042
 20
20.601742008191831
 30
0.0
 42
0.4142135623730956
  0
VERTEX
  5
4492
  8
0
 10
-46.419408399570429
 20
20.62674200819183
 30
0.0
  0
VERTEX
  5
4493
  8
0
 10
-46.419408399570429
 20
21.076742008191829
 30
0.0
 42
0.4142135623730946
  0
VERTEX
  5
4494
  8
0
 10
-46.44440839957042
 20
21.101742008191831
 30
0.0
  0
VERTEX
  5
4495
  8
0
 10
-46.994408399570418
 20
21.101742008191831
 30
0.0
 42
0.4142135623730936
  0
VERTEX
  5
4496
  8
0
 10
-47.019408399570423
 20
21.076742008191829
 30
0.0
  0
VERTEX
  5
4497
  8
0
 10
-47.019408399570423
 20
20.62674200819183
 30
0.0
 42
0.4142135623730961
  0
SEQEND
  5
4498
  8
0
  0
TEXT
  5
40F7
  8
0
 10
-46.957343464505513
 20
20.791742008191829
 30
0.0
 40
0.12
  1
DELETE
  7
4
 72
     4
 11
-46.71940839957044
 21
20.851742008191831
 31
0.0
  0
TEXT
  5
40F8
  8
0
 10
-46.931239568401608
 20
21.341742008191829
 30
0.0
 40
0.12
  1
CLEAR
  7
4
 72
     4
 11
-46.71940839957044
 21
21.401742008191832
 31
0.0
  0
TEXT
  5
40FA
  8
0
 10
-47.62154689244214
 20
21.5591758167458
 30
0.0
 40
0.15
  1
*
  7
3
 72
     4
 11
-47.569408399570449
 21
21.60174200819182
 31
0.0
  0
POLYLINE
  5
4107
  8
0
 66
     1
 10
0.0
 20
0.0
 30
0.0
 70
     1
  0
VERTEX
  5
4499
  8
0
 10
-56.713508457290139
 20
26.421524850874061
 30
0.0
  0
VERTEX
  5
449A
  8
0
 10
-39.713508457290139
 20
26.421524850874061
 30
0.0
  0
VERTEX
  5
449B
  8
0
 10
-39.713508457290139
 20
28.366263390689699
 30
0.0
  0
VERTEX
  5
449C
  8
0
 10
-56.713508457290139
 20
28.366263390689699
 30
0.0
  0
SEQEND
  5
449D
  8
0
  0
POLYLINE
  5
4116
  8
0
 66
     1
 10
0.0
 20
0.0
 30
0.0
 40
0.015
 41
0.015
  0
VERTEX
  5
449E
  8
0
 10
-47.620600358043589
 20
19.946987551555701
 30
0.0
  0
VERTEX
  5
449F
  8
0
 10
-47.528142003479623
 20
19.946987551555701
 30
0.0
  0
SEQEND
  5
44A0
  8
0
  0
TEXT
  5
414E
  8
0
 10
-44.49772109812924
 20
25.58664997711282
 30
0.0
 40
0.15
  1
ATTENTION AUTOCAD USERS
 72
     1
 11
-42.822721098129243
 21
25.58664997711282
 31
0.0
  0
TEXT
  5
414F
  8
0
 10
-45.239299073314932
 20
25.15735329272831
 30
0.0
 40
0.1
  1
change the styles to True Type as follows:
  0
TEXT
  5
4150
  8
0
 10
-45.239299073314932
 20
25.34130366328592
 30
0.0
 40
0.1
  1
To correct the fonts after opening the drawing,
  0
TEXT
  5
4151
  8
0
 10
-45.239299073314932
 20
24.390644470204691
 30
0.0
 40
0.1
  1
Style 3: Swis721 BT/bold/0.100 high/1.00 width factor
  0
TEXT
  5
4152
  8
0
 10
-45.239299073314932
 20
24.649322616151419
 30
0.0
 40
0.1
  1
Style 2: Times-Roman/bold/0.100 high/1.00 width factor
  0
TEXT
  5
4153
  8
0
 10
-45.239299073314932
 20
24.90800076209813
 30
0.0
 40
0.1
  1
Style 1: Times-Roman/regular/0.100 high/1.00 width factor
  0
POLYLINE
  5
4154
  8
0
 66
     1
 10
0.0
 20
0.0
 30
0.0
 70
     1
  0
VERTEX
  5
44AB
  8
0
 10
-45.450646962767522
 20
25.834326457142101
 30
0.0
  0
VERTEX
  5
44AC
  8
0
 10
-40.032572765338109
 20
25.834326457142101
 30
0.0
  0
VERTEX
  5
44AD
  8
0
 10
-40.032572765338109
 20
23.94711280174667
 30
0.0
  0
VERTEX
  5
44AE
  8
0
 10
-45.450646962767522
 20
23.94711280174667
 30
0.0
  0
SEQEND
  5
44AF
  8
0
  0
TEXT
  5
4155
  8
0
 10
-45.239299073314932
 20
24.142079284925941
 30
0.0
 40
0.1
  1
Style 4: Swis721 CnBT/bold/0.100 high/1.00 width factor
  0
POLYLINE
  5
4156
  8
0
 66
     1
 10
0.0
 20
0.0
 30
0.0
 70
     1
  0
VERTEX
  5
44B0
  8
0
 10
-45.550646962767523
 20
25.934326457142092
 30
0.0
  0
VERTEX
  5
44B1
  8
0
 10
-39.932572765338101
 20
25.934326457142092
 30
0.0
  0
VERTEX
  5
44B2
  8
0
 10
-39.932572765338101
 20
23.847112801746661
 30
0.0
  0
VERTEX
  5
44B3
  8
0
 10
-45.550646962767523
 20
23.847112801746661
 30
0.0
  0
SEQEND
  5
44B4
  8
0
  0
ENDSEC
  0
EOF
